Cifra Club

São Paulo

Hinos

Cifra: Versão 5 (violão e guitarra)
Selo Cifra Club: esta cifra foi revisada para atender aos critérios oficiais da nossa Equipe de Qualidade.
tom: F#
Salve o tricolor paulista

E|--3--5--7--5--3---------
B|-----------------5--3--3
G|------------------------
D|------------------------
A|------------------------
E|------------------------

Amado clube brasileiro

E|-----3--5--5--------3--2
B|--3-----------5--5------
G|------------------------
D|------------------------
A|------------------------
E|------------------------

Tu és forte, tu és grande

E|--2--3--5--3--2--3--2-0-
B|------------------------
G|------------------------
D|------------------------
A|------------------------
E|------------------------

Entre os grandes o primeiro

E|--5--2-0-0--2--5--2-0---
B|-----------------------3
G|------------------------
D|------------------------
A|------------------------
E|------------------------

Tu és forte, tu és grande

E|-------0--1--3--7--5----
B|--3--3------------------
G|------------------------
D|------------------------
A|------------------------
E|------------------------

Entre os grandes o primeiro

E|--5--7--5--8--5-10-------
B|-------------------------
G|-------------------------
D|-------------------------
A|-------------------------
E|-------------------------

Oh tricolor, clube bem amado

E|-10--8--7--5~-0-0--2-0--------
B|------------------------3--3--
G|------------------------------
D|------------------------------
A|------------------------------
E|------------------------------

As suas glórias vem do passado

E|--3/-5--7--8-10~----10----10~-
B|-----------------10----10-----
G|------------------------------
D|------------------------------
A|------------------------------
E|------------------------------

Oh tricolor, clube bem amado

E|-10--8--7--5~-0-0--2-0--------
B|------------------------3--3--
G|------------------------------
D|------------------------------
A|------------------------------
E|------------------------------

As suas glórias vem do passado

E|--3/-5--7--8-10~-10-10-10--3--
B|------------------------------
G|------------------------------
D|------------------------------
A|------------------------------
E|------------------------------
Outros vídeos desta música
    2.903 exibições
      • ½ Tom
      • A
      • Bb
      • B
      • C
      • Db
      • D
      • Eb
      • E
      • F
      • F#
      • G
      • Ab
    • Adicionar à lista

    Afinação da cifra

    Afinador online

      0 comentários

      Ver todos os comentários

      Conseguiu tocar?

      0Tocaram0Ainda não

      Grave um vídeo tocando São Paulo e nos envie!

      Toque também

      1. Imagem do artista Hinos de EstadosHino do Rio Grande do Sul Hinos de Estados
      2. Imagem do artista Marchinhas de CarnavalMamãe Eu Quero Marchinhas de Carnaval
      3. Imagem do artista Hinos de PaísesHino do Brasil Hinos de Países
      4. Imagem do artista Exército BrasileiroCanção do Exército Exército Brasileiro

      Entre para o Cifra Club PRO

      Tenha acesso a benefícios exclusivos no App e no Site

      • Chega de anúncios

      • Badges exclusivas

      • Mais recursos no app do Afinador

      • Atendimento Prioritário

      • Aumente seu limite de lista

      • Ajude a produzir mais conteúdo

      Cifra Club Pro

      Aproveite o Cifra Club com benefícios exclusivos e sem anúncios
      Cifra Club Pro
      Aproveite o Cifra Club com benefícios exclusivos e sem anúncios
      Ops (: Contenido disponible sólo en portugués.
      OK