Cifra Club

Hino da Independência do Brasil

Hinos

Cifra: Principal (violão e guitarra)
exibições 16.024
Tom: A
E|-----------------------------------------------------------------------------------------------------------------------------------------------------------|
B|--------------------------3-2-2-3-2-----------------------------------------------------------3-2-0-2-3-5-5-------------------------------------------|
G|-2--0------------------2-------------4-2--4-2-0----2-4-2-------4-2-0-----2-4-2-------2--------------------7-6-4----------------------------------|
D|------0-0-0-0-2-5-0------------------------------2---------4-0----------2---------4-0------------------------------7-6-4-7-6-4----------------|
A|-----------------------------------------------------------------------------------------------------------------------------------7---------7-5-4-------|
E|-----------------------------------------------------------------------------------------------------------------------------------------------------7-5---|

E|----------------------------------------------------------------------------------------------------------------------------------------------------------------------------------|
B|------ 0-------------------0--------------------------------------2-3-3-0----------------3-3-5-3-2-0-----3-2-0----------------3-3-5-3-2-0-----3-2-0-----------------|
G|-2-2---2----2-0----2-2--2-2----2-0-------------0-2-2-4-------------2-0-------------------------2----------2-0--------------------------2----------2-0-----------|
D|-----------2------4-----------------2------4---4-4-4------------------------------4-2-0-----------------------------------4-2-0----------------------------------4-2-0----|
A|----------------------------------------------------------------------------------------------------------------------------------------------------------------------------------|
E|----------------------------------------------------------------------------------------------------------------------------------------------------------------------------------|
Acordes para:
    Composição: Dom Pedro I / Evaristo Da Veiga Colaboração e revisão:
    • Wesley

    0 comentários

    mostrar mais comentários

    Conseguiu tocar?

    0 tocaram 3 ainda não

    Grave um vídeo tocando Hino da Independência do Brasil e mande pra gente!

    00:00 / 00:00
    outros vídeos desta música
    repetir qualidade Automático
    Outros vídeos desta música
    00:00 / 00:00
    Automático
    OK