Cifra Club

São João da Terra

Mastruz Com Leite

Cifra: Principal (violão e guitarra)
Selo Cifra Club: esta cifra foi revisada para atender aos critérios oficiais da nossa Equipe de Qualidade.
tom: Bm
[Intro] Bm  A  Em  Bm  F#7 
        Bm  F#7  Bm  F#7  Bm  F#7  
        Bm  F#7  Bm  G  F#7

[Tab - Intro]

E|-------------------------------------------|
B|-----/19-19-20-19---/19-19-20-19-----------|
G|-------------------------------------------|
D|-------------------------------------------|
A|-------------------------------------------|
E|-------------------------------------------|

E|-------------------------------------------|
B|-----/19-19-20-19---20-19------------------|
G|-------------------------------------------|
D|-------------------------------------------|
A|-------------------------------------------|
E|-------------------------------------------|

E|----/19----19-17~---------------19-17------|
B|--------19---------/19-19-20-20-------19---|
G|-------------------------------------------|
D|-------------------------------------------|
A|-------------------------------------------|
E|-------------------------------------------|

E|------------------------17-15-14----15/17--|
B|-----/12-/15-/14--14-17----------17--------|
G|-------------------------------------------|
D|-------------------------------------------|
A|-------------------------------------------|
E|-------------------------------------------|

[Primeira Parte]

D                     A
São João na terra é fogueira é fogueira
Em                  Bm
São João no céu é balão
D                    A
Dança quadrilha na poeira
Em                 Bm
Isso é que é São João

[Refrão] 

          F#7
Toda a alegria 
         Bm
Toda energia
        F#7            Bm
Toda poesia no meu coração
          F#7
Toda a alegria
         Bm
Toda energia
        F#7            Bm
Toda poesia no meu coração
          A            D
Meu São João meu São João
          F#7
Toda a alegria
         Bm
Toda energia
        F#7            Bm
Toda poesia no meu coração
          F#7
Toda a alegria 
         Bm
Toda energia
        F#7            Bm
Toda poesia no meu coração
          A            D
Meu São João meu São João
        F#7             Bm  A  Bm  C#m  D
Toda alegria no meu coração
      A   Em           Bm
Vou pedir ao meu São João
D     A   Em            Bm
Pra subir com você no balão

[Final] Bm  A  Bm  A  D  
        A  D  F#7  G  F#7
        G  F#7  G  Bm 
Outros vídeos desta música
    45.674 exibições
      • ½ Tom
      • Am
      • Bbm
      • Bm
      • Cm
      • C#m
      • Dm
      • Ebm
      • Em
      • Fm
      • F#m
      • Gm
      • G#m
    • Adicionar à lista

    Afinação da cifra

    Afinador online

      0 comentários

      Ver todos os comentários

      Entre para o Cifra Club PRO

      Tenha acesso a benefícios exclusivos no App e no Site

      • Chega de anúncios

      • Badges exclusivas

      • Mais recursos no app do Afinador

      • Atendimento Prioritário

      • Aumente seu limite de lista

      • Ajude a produzir mais conteúdo

      Cifra Club Pro

      Aproveite o Cifra Club com benefícios exclusivos e sem anúncios
      Cifra Club Pro
      Aproveite o Cifra Club com benefícios exclusivos e sem anúncios
      OK