Cifra Club

Tú Jardín Con Enanitos

Melendi

Cifra: Principal (violão e guitarra)
Selo Cifra Club: esta cifra foi revisada para atender aos critérios oficiais da nossa Equipe de Qualidade.
tom: Em
[Intro] D4  C9  G
        Em  D
        D4  C9  G  D

[Primeira Parte]

[Tab - Intro]

Parte 1 de 3
     D4      C9           G  
E|---3-2p0---0-----0--------------------------------|
B|---------3---3------3---3-------------------------|
G|-2-------------0------0----0---0------------------|
D|---0----------------------------------------------|
A|-----------3--------------------------------------|
E|------------------------3----3--------------------|

Parte 2 de 3
           Em           D
E|-3-2p0--------------------------------------------|
B|-------3-0-----0-----------3----------------------|
G|-----------0------0---2--2------------------------|
D|-------------2------2-0---------------------------|
A|--------------------------------------------------|
E|---------0----------------------------------------|

Parte 3 de 3
     D4      C9           G                D
E|---3-2p0---0-----0--------------------------------|
B|---------3---3------3---3------------1p0---3---3--|
G|-2-------------0------0----0---0---0-----2---2----|
D|---0-----------------------------0-------0--------|
A|-----------3--------------------------------------|
E|------------------------3----3--------------------|

                   Em
Hoy le pido a mis sueños
C                   G   B7
  Que te quiten la ropa
                     Em
Que conviertan en besos
             C                     D
Todos mis intentos de morderte la boca

                       C
Y aunque entiendo que tú
                   D                 
Tú siempre tienes la última 
   G                  D  
Palabra en esto del amor

[Ponte]

                    C             D
Yo hoy le pido a tu ángel de la guarda
           Em                  
Que comparta
             G                    C 
Que me de valor y arrojo en la batalla 
       D
Pa' ganarla

[Refrão]

                         C  
Y es que yo no quiero pasar 
                        G
Por tu vida como las modas
                    D 
No se asuste señorita
                          Em
Nadie le ha hablado de boda

                    C  
Yo tan solo quiero ser 
                          G
Las cuatro patas de tu cama
                        D 
Tu guerra todas las noches
                    Em
Tu tregua cada mañana

                   C  
Quiero ser tu medicina
                        G
Tus silencios y tus gritos
                    D 
Tu ladrón, tu policía
                  Em
Tu jardín con enanitos

                   
Quiero ser la escoba 
        C                    G
Que en tu vida barra la tristeza
                      D 
Quiero ser tu incertidumbre 
                   C
Y sobretodo tu certeza

[Segunda Parte]

                  Em
Hoy le pido a la luna
C                      G    B7
  Que me alargue esta noche
                       Em
Y que alumbre con fuerza
           C                       D
Este sentimiento y bailen los corazones
                       C  D/C
Y aunque entiendo que tú
                    Bm    
Serás siempre ese sueño 
        G                    D
Que quizás nunca podré alcanzar

[Ponte]

                    C             D
Yo hoy le pido a tu ángel de la guarda
      Em                  
Que comparta
             G                    C 
Que me de valor y arrojo en la batalla 
       D
Pa' ganarla

[Refrão]
                         C  
Y es que yo no quiero pasar 
                        G
Por tu vida como las modas
                    D 
No se asuste señorita
                        Em
Nadie le ha hablado de boda
                    C  
Yo tan solo quiero ser 
                        G
Las cuatro patas de tu cama
                        D 
Tu guerra todas las noches
                  Em
Tu tregua cada mañana
                 C  
Quiero ser tu medicina
                        G
Tus silencios y tus gritos
                    D 
Tu ladrón, tu policía
                  Em
Tu jardín con enanitos
                   C  
Quiero ser la escoba 
                          G
Que en tu vida barra la tristeza
                    D 
Quiero ser tu incertidumbre 
                   C   D
Y sobretodo tu certeza

[Solo] C  G  Em  D 
       C  G  D 

[Tab - Solo]
       
Parte 1 de 2     
             C     G                  Em   D
E|--------------------------------------------------|
B|---8-7-5---5----------------8-7-5-----------------|
G|---------7-----7-7----------------7-4--2-2--------|
D|-5------------------5-----5-----------------------|
A|--------------------------------------------------|
E|--------------------------------------------------|

Parte 2 de 2
             C     G            D
E|--------------------------------------------------|
B|---8-7-5---5--------------------------------------|
G|---------7-----7-7--------4p5-2/7-7---------------|
D|-5------------------5-----------------------------|
A|--------------------------------------------------|
E|--------------------------------------------------|

[Refrão 2]

                    C   
Y es que yo quiero ser 
                             G
El que nunca olvida tu cumpleaños
                    D     
Quiero que seas mi rosa 
                               Em
Y mi espina aunque me hagas daño
                    C  
Quiero ser tu carnaval
                        G
Tus principios y tus finales
                      D 
Quiero ser el mar dónde 
                         Em
Puedas ahogar todos tus males
                    C  
Quiero que seas mi tango de Gardel
         G
Mis octavillas
                   D   
Mi media luna de miel
                         Em
Mi blues, mi octava maravilla
                   C 
El baile de mi salón
                       G
La cremallera y los botones
                      D    
Quiero que lleves tu falda 
                    C    D
Y también mis pantalones

[Final]

         Em    
Tu astronauta
     C                        G
El primer hombre que pise tu luna
    Em                     C
Clavando una bandera de locura
                          G
Para pintar tu vida de color, de pasión
                           D
De sabor, de emoción y ternura
                           C 
Sepa usted que yo ya no tengo cura 
         G
Sin tu amor
Outros vídeos desta música
    177.073 exibições
      • ½ Tom
      • Am
      • Bbm
      • Bm
      • Cm
      • C#m
      • Dm
      • Ebm
      • Em
      • Fm
      • F#m
      • Gm
      • G#m
    • Adicionar à lista

    Afinação da cifra

    Afinador online

      0 comentários

      Ver todos os comentários

      Entre para o Cifra Club PRO

      Tenha acesso a benefícios exclusivos no App e no Site

      • Chega de anúncios

      • Badges exclusivas

      • Mais recursos no app do Afinador

      • Atendimento Prioritário

      • Aumente seu limite de lista

      • Ajude a produzir mais conteúdo

      Cifra Club Pro

      Aproveite o Cifra Club com benefícios exclusivos e sem anúncios
      Cifra Club Pro
      Aproveite o Cifra Club com benefícios exclusivos e sem anúncios
      Ops (: Contenido disponible sólo en portugués.
      OK