Cifra Club

Gracias a la vida

Mercedes Sosa

Cifra: Principal (violão e guitarra)
Tom: Bbm (forma dos acordes no tom de Am) Capotraste na 1ª casa
[Intro] Dm  

           Dm            D11+
E|-0-0-0-0-1-----1-------4------------------|
B|---------3-3-----3-----3------------------|
G|---------2---2-----2---2------------------|
D|---------0-------------0------------------|
A|------------------------------------------|
E|---------------------0--------------------|

          Am7 
E|-5-7-8--7-----5-----5--5-7-8/10-----------|
B|------------5---5-------------------------|
G|----------5-------5-----------------------|
D|-----------------------7-6-5--------------|
A|--------0---------------------------------|
E|------------------------------------------|
 
   Dm7          G#m5-
E|-8-------8------------7-------------------|
B|-----7------------5-------5---------------|
G|---6---6---6----7---7---7---7-------------|
D|--------------6---------------------------|
A|-5----------------------------------------|
E|------------------------------------------|

   Am
E|---------0--------------------------------|
B|-----1-0---0-1----------------------------|
G|---2-----------2--------------------------|
D|------------------------------------------|
A|-0----------------------------------------|
E|------------------------------------------|

[Primeira Parte]


              Dm7  E7                 Am7
Gracias a la vida     que me ha dado tanto
              G7(9)               C7M
Me dio dos luceros que cuando los abro
             C7                  F7M
Perfecto distingo lo negro del blanco
                       E7    Am7       
Y en alto cielo su fondo estellado
               Dm7(9)       E7       Am  Am/G  Am/F  Am/E 
Y en las multitudes al hombre que yo amo

( Am  Am/G  Am/F  Am/E  Am )

[Segunda Parte]

              Dm7  E7                 Am7
Gracias a la vida     que me ha dado tanto
                 G7(9)          C7M
Me ha dado el sonido y el abecedario
              C7                     F7M
Con él las palabras que pienso y declaro
                  E7             Am7 
Madre amigo hermano    y luz alumbrando
            Dm7(9)         E7    Am  Am/G  Am/F  Am/E 
La vita del alma del que estoy amando

( Am  Am/G  Am/F  Am/E  Am )

[Terceira Parte]

              Dm7  E7                 Am7
Gracias a la vida     que me ha dado tanto
               G7(9)                 C7M
Me ha dado la marcha de mis pies cansados
             C7               F7M
Con ellos auduve ciudades y charcos
                        E7     Am7 
Playas y desiertos, montanãs y llanos
              Dm7(9)      E7      Am  Am/G  Am/F  Am/E 
Y en la casa tuya, tu calle y tu patio

( Am  Am/G  Am/F  Am/E  Am )

[Qaurta Parte]

              Dm7  E7                 Am7
Gracias a la vida     que me ha dado tanto
               G7(9)            C7M
Me dio el corazón que agita su marco
                 C7                 F7M
Cuando miro el fruto del cerebro humano
                             E7      Am7 
Cuando miro al el bueno tan lejos del malo
                Dm7(9)      E7     Am  Am/G  Am/F  Am/E 
Cuando miro el fondo de tus ojos claros

( Am  Am/G  Am/F  Am/E  Am )

[Quinta Parte]

              Dm7  E7                 Am7
Gracias a la vida     que me ha dado tanto
               G7(9)                 C7M
Me ha dado la risa y me ha dado el llanto
           C7                 F7M
Asi yo distingo dicha de quebranto
                         E7     Am7
Los dos materiales que forman mi canto
              Dm7(9)      E7           Am  
Y el canto de ustedes que es el mismo canto
               Dm7(9)   E7            Am 
Y el canto de todos que es mi propio canto
              Dm7  E7  Am7 
Gracias a la vi_______da
              Dm7  E7  Am7 
Gracias a la vi_______da
              Dm7  E7  Am7 
Gracias a la vi_______da
              Dm7  E7  Am7 
Gracias a la vi_______da

[Final] Am/G  Am/F  Am/E  Am
exibições 71.516
Acordes para:
    Composição: Violeta Parra Colaboração e revisão:

    0 comentários

    mostrar mais comentários

    Conseguiu tocar?

    3 tocaram 3 ainda não

    Grave um vídeo tocando Gracias a la vida e mande pra gente!

    00:00 / 00:00
    outros vídeos desta música
    repetir qualidade Automático
    Outros vídeos desta música
    00:00 / 00:00
    Automático
    OK