Cifra Club

October 8

Midnight Choir

Cifra: Principal (violão e guitarra)
Selo Cifra Club: esta cifra foi revisada para atender aos critérios oficiais da nossa Equipe de Qualidade.
tom: C
C
E|------------------------------------------------|
B|----1--------1--------------1--------1----------|
G|-------0--------0-----0--------0--------0-----0-|
D|------------------------------------------------|
A|-3--------3--------3-----3--------3--------3----|
E|------------------------------------------------|

Am
E|------------------------------------------------|
B|----1--------1--------------1--------1----------|
G|-------2--------2-----2--------2--------2-----2-|
D|------------------------------------------------|
A|-0--------0--------0-----0--------0--------0----|
E|------------------------------------------------|

Em
E|------------------------------------------------|
B|----0--------0--------------0--------0----------|
G|-------0--------0-----0--------0--------0-----0-|
D|------------------------------------------------|
A|------------------------------------------------|
E|-0--------0--------0-----0--------0--------0----|

F
E|------------------------------------------------|
B|----1--------1--------------1--------1----------|
G|-------2--------2-----2--------2--------2-----2-|
D|------------------------------------------------|
A|------------------------------------------------|
E|-1--------1--------1-----1--------1--------1----|

G
E|------------------------------------------------|
B|----0--------0--------------0--------0----------|
G|-------0--------0-----0--------0--------0-----0-|
D|------------------------------------------------|
A|------------------------------------------------|
E|-3--------3--------3-----3--------3--------3----|

This pattern applies everywhere except for the first "down on me" line in verse 1. You start as Am and switch
to G halfway, like:

Am                         G
E|------------------------------------------------|
B|----1--------1--------------0--------0----------|
G|-------2--------2-----2--------0--------0-----0-|
D|------------------------------------------------|
A|-0--------0--------0----------------------------|
E|-------------------------3--------3--------3----|

[Intro]
C  Em  Am  F  C  
N.C.

[Verse 1]
   C        
He woke up
       Em    
By her side
     Am                F
In a tiny motel room
                  
Bible by his side
C            Em   
Jesus on the wall
  Am                  F  
A faithless whisper
       C    
Old & Cold
               G      
As the darkest night
       |Am G|     F 
Down on me
        C     C C C
Down on me

[Verse 2]
C
Father
       Em
For 30 years
       Am
I have walked this earth
         F
Among my peers
            C     Em
I feel like dying tonight
        Am
Hear my prayer
        F
Down on thee
        C         C
Down on me

[Outro]
        Am
HEAR MY PLEED
        F
HEAR MY PLEED
        C          C
HEAR MY PLEED
        Am
HEAR MY PLEED
        F
HEAR MY PLEED
        C          C Am F C C Am F C C
HEAR MY PLEED
Outros vídeos desta música
    18 exibições
      • ½ Tom
      • A
      • Bb
      • B
      • C
      • Db
      • D
      • Eb
      • E
      • F
      • F#
      • G
      • Ab
    • Adicionar à lista

    Afinação da cifra

    Afinador online

      0 comentários

      Ver todos os comentários

      Entre para o Cifra Club PRO

      Tenha acesso a benefícios exclusivos no App e no Site

      • Chega de anúncios

      • Badges exclusivas

      • Mais recursos no app do Afinador

      • Atendimento Prioritário

      • Aumente seu limite de lista

      • Ajude a produzir mais conteúdo

      Cifra Club Pro

      Aproveite o Cifra Club com benefícios exclusivos e sem anúncios
      Cifra Club Pro
      Aproveite o Cifra Club com benefícios exclusivos e sem anúncios
      Ops (: Contenido disponible sólo en portugués.
      OK