Cifra Club

One Country

Midnight Oil

Cifra: Principal (violão e guitarra)
Selo Cifra Club: esta cifra foi revisada para atender aos critérios oficiais da nossa Equipe de Qualidade.
tom: G
G C G
Who'd like to change the world?
Who wants to shoot the curl?
D            C           G 
Who wants to work for bread?
D        C          Em
Who wants to get ahead?
G C G
Who hands out equal rights?
Who starts and ends that fight?
D       C        G 
And not rant and rave,
D      C      Em       Em   D/F# G
or end up a slave.
G C G
Who can make hard-won gains,
fall, like the summer rain?
D     C         G 
Every man must be, 
D     C          Em      
what his life can be,
C/G       D/A     Em   C
So don't, call, me,  the tune, i will walk away.

RIFF 1: DUAS VEZES
e|-----------------------------------------------------
b-----------------------------------------------------
g-----------------------------------------------------
d-----------------------------------------------------
a--------2-0-3-0-2-3-0-0------------------------------
e|---3-3-3---------------------------------------------

G C G
Who wants to please everyone?
Who says it all can be done?
D         C           G 
Still sit up on that fence
D      C          Em      
no one i've heard of yet

G C G               G C G
Don't call me baby, Don't talk in maybe's,
D          C        G
Don't talk like has-beens,
D       C              Em       Em   D/F# G
Sing it like it should be.
G C G                      
Who laughs at a naggin-down(?)
Lyin' on a neon shroud, runnin around, yeah
D         C        G
You've gotta touch someone,
D       C        Em       
yeah, i wanna be.......

C/G       D/A   Em   C
So don't, call, me,  the tune, i will walk away.  (4 Vezes)

(instrumental)
Riff 1: Duas vezes
e|-----------------------------------------------------
b-----------------------------------------------------
g-----------------------------------------------------
d-----------------------------------------------------
a--------2-0-3-0-2-3-0-0------------------------------
e|---3-3-3---------------------------------------------

Riff 2: Uma vez
e|-----------------------------------------------------
b-----------------------------------------------------
g-----------------------------------------------------
d-----------------------------------------------------
a--------2-0-3-0-2-3-0-0------------------------------
e|---3-3-3----------------0-0-0-2-2-2-3----------------

Am    C   D (4 Vezes)

G        C       G   C       Am   F       Am (ate o final a mesma sequencia)  
One......country One,country One, country One
Who wants to sit around? (country, One)
Turn it up, turn it down? (country,One)
Only a man can be (country One)
what his life can be!

(country one) one vision
(country one) One people
(country one) One landmass
(country one) be our defences
(country one) we have a lifeline

one ocean, one policy, see bad light,
one passion, one movement, one instant, one difference,
one life time and one understanding.

(country one)Yeahhhhhh, one country,
(country one)I..... tell you, its one country
(country one)heyyyyyyyy (country one)

Yeah one, one, one (one country)
one, one, one, one country
one..........(country one)
one.......understanding

Transgression, redemption
one island blue, our place (magic),
one firmament, one element,
one moment, one fusion,
is so on time.
Outros vídeos desta música
    3.819 exibições
      • ½ Tom
      • A
      • Bb
      • B
      • C
      • Db
      • D
      • Eb
      • E
      • F
      • F#
      • G
      • Ab
    • Adicionar à lista

    Afinação da cifra

    Afinador online

      0 comentários

      Ver todos os comentários

      Entre para o Cifra Club PRO

      Tenha acesso a benefícios exclusivos no App e no Site

      • Chega de anúncios

      • Badges exclusivas

      • Mais recursos no app do Afinador

      • Atendimento Prioritário

      • Aumente seu limite de lista

      • Ajude a produzir mais conteúdo

      Cifra Club Pro

      Aproveite o Cifra Club com benefícios exclusivos e sem anúncios
      Cifra Club Pro
      Aproveite o Cifra Club com benefícios exclusivos e sem anúncios
      Ops (: Contenido disponible sólo en portugués.
      OK