Cifra Club

Communist Daughter

Neutral Milk Hotel

Cifra: Principal (violão e guitarra)
tom: G
Introdução

2x
e|--3-----------2-----------0-----------0---------
B|--3-----------3-----------1-----------1---------
G|--0-----------2-----------0-----------0---------
D|--0-----------0-----------2-----------2---------
A|--2--3-2-3-------3-2-3----3--3-2-3----3--3-2-3--
E|--3---------------------------------------------
                                              Sweet communist...

        G
Sweet communist

The communist daughter
  D
Standing on the sea-weed water
  C
Semen stains the mountain tops
Semen stains the mountain tops

        G
With cocoa leaves along the border
   D
Sweetness sings from every corner 
  C
Cars careening from the clouds

The bridges burst and twist around
     G
And wanting something warm and moving
 D
Bends towards herself the soothing 
  C
Proves that she must still exist

She moves herself about her fist
        G
Sweet communist
     D
The communist daughter 
  C
Standing on the sea-weed water

Semen stains the mountain tops


Solo de trompete (G D C C G D C C)

e|-------10-8-7-8-10-8-7----------8-7----7-8-7---------
B|--8-10-----------------10--8-10-----10-------10-8----
G|-----------------------------------------------------

e|-------8-7----7-8-7------------8-7----7-8-7-8-10-----
B|--8-10-----10-------10-8--8-10-----10----------------
G|-----------------------------------------------------

e|-------10-8-7-8-10-8-7----------8-7----7-8-7---------
B|--8-10-----------------10--8-10-----10-------10-8----
G|-----------------------------------------------------

e|-------8-7----7-8-7------------8-7----7-8-7-8-10-----
B|--8-10-----10-------10-8--8-10-----10---------8------
G|----------------------------------------------7------
                                                                
00:00 / 00:00
Outros vídeos desta música
Repetir
Outros vídeos desta música
Composição de Jeff Mangum / Scott Spillane
Colaboração e revisão:
  • Rafael Eyng
2.839 exibições
    • ½ Tom
    • A
    • Bb
    • B
    • C
    • Db
    • D
    • Eb
    • E
    • F
    • F#
    • G
    • Ab
  • Adicionar à lista

    0 comentários

    Ver todos os comentários

    Conseguiu tocar?

    2 Tocaram 0 Ainda não

    Grave um vídeo tocando Communist Daughter e nos envie!

    00:00 / 00:00

    Cifra Club Pro

    Aproveite o Cifra Club com benefícios exclusivos e sem anúncios
    Cifra Club Pro
    Aproveite o Cifra Club com benefícios exclusivos e sem anúncios
    OK