Cifra Club

Pa' olvidarme de ella

Piso 21

Cifra: Principal (violão e guitarra)
tom: Am
   Dm  - G   - C  - E7  - Am 

 Circulo del CORO
   Dm  - G   - C  - E7  - Am  - A7 

Tab del intro y final:
(Al final, el TAB se corta)
     Dm7                         G  
E|-----1-0-1---------1-0-1-----------3-------------3-----|
B|---1-------1-----1-------1-------3---3---------3---3---|
G|-------------------------------4-------4-----4-------3-|
D|-0-------------0---------------------------------------|
A|-------------------------------------------------------|
E|-----------------------------3-------------3-----------|

     Cm aj7                      Am                  A7 
E|-------3-------------3-------------5-----------------5-|
B|-----5---5---------5---5---------5---5---------5-8-----|
G|---4-------4-----4-------4-----5-------5-----5---6-6---|
D|-------------------------------------------------5-----|
A|-3-------------3---------------------------------------|
E|-----------------------------5-------------5-----5-----|



Este TAB creo que se repite en toda la canción, y en ciertas
partes se mutea:

     Dm                        G  
E|---1-1---1-1---1-1---1-1---------------------------|
B|---3-3---3-3---3-3---3-3-----3-3---3-3---3-3-------|
G|---2-2---2-2---2-2---2-2-----4-4---4-4---4-4-------|
D|-0-----------0---------------5-5---5-5---5-5-------|
A|-------0-----------0-------------5-------------0-2-|
E|---------------------------3-----------3-----3-----|

     C                 E7      Am 
E|---0-0---0-0---0-0-----------0-0---0-0---0-0---0-0-|
B|---1-1---1-1---1-1---3-3-----1-1---1-1---1-1---1-1-|
G|---0-0---0-0---0-0---1-1-----2-2---2-2---2-2---2-2-|
D|---------------------0-0---------2-----------2-----|
A|-3-----------3-----2-------0-----------0-----------|
E|-------3-------------------------------------------|



    Dm 
 Ya no aguanto tanto trago

 Te he pensado más de lo que he olvidado
      G  
 Mis amigos me la tiraron

 Que como siga así voy pa’l carajo
           C 
 Yo ya olvidé lo que es el relajo
                           E7 
 No juego FIF  desde hace rato
            Am 
 Botellas a medias no me quedaron

 Tomo un trago y otro trago


             Dm 
 Me da por poner dizque Dalmata y Ñejo

 Y a veces escucho el consejo del viejo
       G  
 La verdad es que te fuiste lejos

 Quedé con la cara de pendejo
           C 
 Tengo una vaina guardada en el pecho
          E7 
 ¿Será despecho?
         Am 
 Como huevón mirando pa’l techo

 Ya lo hecho está hecho



       Dm 
 Por favor que alguien me diga

 Que se toma pa’ las penas
          G  
 Cuando está recién herido

 Y el alcohol no ayuda
             C 
 Pa’ olvidarme de ella
 E7          Am          A7 
 Pa’ olvidarme de ella


       Dm 
 Ya bailé con otros labios

 Y me acuerdo siempre de ella
       G  
 He cantado mil rancheras

 Y el alcohol no ayuda
             C 
 Pa’ olvidarme de ella
 E7          Am          A7 
 Pa’ olvidarme de ella



        Dm 
 Que descanse en paz aquí

 Tú te fuiste y yo me fui
        G  
 Mi cuerpo camina solo

 Mi alma se fue tras de ti
    C 
 Tú no tienes la culpa
                  E7              Am 
 Que yo no me acostumbre a estar sin ti

 (Yo no me acostumbro a estar sin ti)


      Dm 
 Pero si voy a olvidarte

 Te lo juro por quien quiera
      G  
 Solo es cuestión de tiempo
                                  C 
 Hasta que llegue una más buena que tú
        E7           Am 
 Que lo haga mejor que tú


       Dm 
 Por favor que alguien me diga

 Que se toma pa’ las penas
          G  
 Cuando está recién herido

 Y el alcohol no ayuda
             C 
 Pa’ olvidarme de ella
 E7          Am          A7 
 Pa’ olvidarme de ella


       Dm 
 Ya bailé con otros labios

 Y me acuerdo siempre de ella
       G  
 He cantado mil rancheras

 Y el alcohol no ayuda
             C 
 Pa’ olvidarme de ella
 E7          Am          A7 
 Pa’ olvidarme de ella



         Dm                                    ----------------------
 Ya bajé Tinder en mi celular

 Y subí una foto pa’ que le de match          Aqui se escucha la 1ra
              G                               parte del intro
 Una que esté buena y me ayude a olvidarla

 De mi cama no pienso sacarla
C|----------------------|
 Hasta que aparezca pienso emborracharme
                        E7 
 Al tequila duro quiero darle
       Am 
 A mis penas yo las quiero ahogar

 Pero las cabronas ya saben nadar


         Dm 
 Ya bajé Tinder en mi celular

 Y subí una foto pa’ que le de match
              G  
 Una que esté buena y me ayude a olvidarla

 De mi cama no pienso sacarla
              C 
 Hasta que aparezca pienso emborracharme
                        E7 
 Al tequila duro quiero darle
       Am 
 A mis penas yo las quiero ahogar

 Pero las cabronas ya saben nadar


       Dm 
 Por favor que alguien me diga

 Que se toma pa’ las penas
          G  
 Cuando está recién herido

 Y el alcohol no ayuda
             C 
 Pa’ olvidarme de ella
 E7          Am          A7 
 Pa’ olvidarme de ella


       Dm 
 Ya bailé con otros labios

 Y me acuerdo siempre de ella
       G  
 He cantado mil rancheras

 Y el alcohol no ayuda
             C 
 Pa’ olvidarme de ella
 E7          Am          A7 
 Pa’ olvidarme de ella
00:00 / 00:00
Outros vídeos desta música
Repetir
Outros vídeos desta música
Composição de Alizzz / Christian Nodal / David Escobar Gallego / David Hernández / Edgar Barrera / Juan David Huertas Clavijo / Pablo Mejia Bermudez / Yera
7.957 exibições
    • ½ Tom
    • Am
    • Bbm
    • Bm
    • Cm
    • C#m
    • Dm
    • Ebm
    • Em
    • Fm
    • F#m
    • Gm
    • G#m
  • Adicionar à lista

    0 comentários

    Ver todos os comentários

    Entre para oCifra Club PRO

    Tenha acesso a benefícios exclusivos no App e no Site

    • Chega de anúncios

    • Prioridade de compra em lançamentos

    • Mais recursos no app do Afinador

    • Atendimento Prioritário

    • Descontos nos produtos Cifra Club

    • Ajude a produzir mais conteúdo

    00:00 / 00:00

    Cifra Club Pro

    Aproveite o Cifra Club com benefícios exclusivos e sem anúncios
    Cifra Club Pro
    Aproveite o Cifra Club com benefícios exclusivos e sem anúncios
    OK