Cifra Club

Love Makes The World Go 'round (Só o Amor Faz o Mundo Andar)

Powerpuff Girls (Meninas Super-Poderosas)

Cifra: Principal (violão e guitarra)
tom: D

Intro no baixo:
G |--4--------4----3--4-----------:--4--3--4----------------------:-
D |--------6----------------4-----:--------------------4----------:-
A |-------------------------------:-------------------------------:-
E |-------------------------------:-------------------------------:-

Intro do violão:
E |--------------------------------:--------------------9----------:-
B |--------------------------------:--------------------9----------:-
G |-------8----------------6----6--:--------8-----------9----------:-
D |-----9-----9----------6----6----:------9-----9-------11---------:-
A |---9----------9-----7-----------:----9----------9----11---------:-
E |-7----------------9-------------:--7-----------------9----------:-

B             F#           A        F#
Abra bem os olhos, preste muita atenção
B             F#           A            F#
Veja bem as cores, como é lindo esse mundão
B      F#              A      E
Vamos voar, pois temos um avião,
     A        E         F#        B
Com cores e amores fica bem coloridão, porquê:

    B              C#        E           B    :
Só só só só o amor, só o amor, faz o mundo andar     : (Refrão)
    B              C#         E          B      :
Só só só só o amor, só o amor, faz o mundo andar     :

B            F#            A         F#
Abra seus ouvidos, ouça o mundo te dizer
B            F#             A         F#
Pássaros cantando, um novo dia vai nascer
B           F#         A         E
Todo mundo tem uma canção no coração
A             E        F#        B
Se quiser cantar é só usar a emoção.

(Solo de guitarra da Florzinha )

Base:

B              C#         E           B  B    B     (Mesma base do refrão 2x)

Solo: (Com Wah-wah [auto-filter tambem funciona legal] e leve distorção)
E |-----------------------------:----7-9b-9-9b-9-7---7------:
B |--------4--4--4--4-----------:--9---------------9---7~~--:
G |--------6b-6b-6b-6b-6h4---4--:---------------------------:
D |-----4------------------6----:---------------------------:
A |-4h6-------------------------:---------------------------:
E |-----------------------------:---------------------------:

E |-----------------------------:----7-9b-9-9b-9-7---7~~~~--:
B |--8-11b-11b-11b-11b-11h8-----:--9---------------9--------:
G |-----------------------11-9:---------------------------:
D |-----------------------------:---------------------------:
A |-----------------------------:---------------------------:
E |-----------------------------:---------------------------:

B              C#         E           B  B    B     (Até o final da música mesma base do refrão)
# Docinho:
Só só só só o amor, só o amor, faz o mundo andar.
# Lindinha:
Não pode me ferir com o que você me diz,
te faço um carinho e você vai ser feliz!
# Florzinha:
Bichinhos, assim, brincam de temas com amor!

# Todos:
B              C#         E           B  B    B
Só só só só o amor, só o amor, faz o mundo andar!
B              C#         E           B  B    B
Só só só só o amor, só o amor, faz o mundo andar!
Composição de Powerpuff Girls
Colaboração e revisão:
  • Gabriel A
4.564 exibições
    • ½ Tom
    • A
    • Bb
    • B
    • C
    • Db
    • D
    • Eb
    • E
    • F
    • F#
    • G
    • Ab
  • Adicionar à lista

    0 comentários

    Ver todos os comentários

    Conseguiu tocar?

    3 Tocaram 0 Ainda não

    Grave um vídeo tocando Love Makes The World Go 'round (Só o Amor Faz o Mundo Andar) e nos envie!

    00:00 / 00:00
    Outros vídeos desta música
    Repetir Qualidade Automático
    Outros vídeos desta música
    00:00 / 00:00
    Automático

    Cifra Club Pro

    Aproveite o Cifra Club com benefícios exclusivos e sem anúncios
    Cifra Club Pro
    Aproveite o Cifra Club com benefícios exclusivos e sem anúncios
    OK