Cifra Club

As Minas do Rei Salomão

Raul Seixas

Cifra: Versão 2 (violão e guitarra)
tom: G

Intro: 
    G
E|-----6-5------------------------------------------|
B|-5-8-----8-5----------3------3--------------------|
G|-------------7^---2h4----2h4----2h4p2-------------|
D|--------------------------------------4p2---------|
A|------------------------------------------4p2-----|
E|----------------------------------------------5-3~|

E|-10~~-12-10-------------------------|
B|-12~~-------12-8--------------------|
G|------------------9-7-4-------------|
D|------------------------5-2---------|
A|-----------------------------2------|
E|-------------------------------5-3--|

G                         A    (Riff 1)                   C
Entra e vem correndo para mim, meu princípio já chegou ao fim, 
G                                (Riff 2)
o que me resta agora é o seu amor...
D                         C                         D         
Traga a sua bola de cristal e aquele incenso do Nepal 
G                           (Riff 3)
que você comprou num camelô.
G                                Bm 
E me empresta o seu colar que um dia eu fui buscar 
      C         A        D (Riff 4)        
na tumba de um sábio faraó...   
 G                         Bm 
E me empresta o seu colar que um dia eu fui buscar 
      C        A         D (Riff 5)
na tumba de um sábio faraó...                         

G                      A                                  C 
Veja quanto livro na estante, Don Quixote, o cavaleiro andante,
                               G  (Riff 6)    
 luta a vida inteira contra o rei...

D                           C                              D         
Joga as cartas, leia minha sorte, tanto faz a vida como a morte,
                         G (Riff 7)
o pior de tudo eu já passei.

G                          Bm
Do passado eu me esqueci, no presente eu me perdi
C             A            D (Riff 8)
Se chamarem, diga que eu saí
G                          Bm
Do passado eu me esqueci, no presente eu me perdi
C            D           G  (Riff 9)                      
Se chamarem, diga que eu saí...   

Solo:
       G                        D
E|---10-10-10-10-11-11-11-11-11/13-13-13-13-13/16-16-16\13-13-|
B|---12-12-12-12-13-13-13-13-13/15-15-15-15-15/18-18-18\15-15-|
G|------------------------------------------------------------|
D|------------------------------------------------------------|
A|------------------------------------------------------------|
E|------------------------------------------------------------|
     C                         G
E|--12-12-12-12--15-15-15-12-10-10-11-10-10-------------------|
B|--14-14-14-14--17-17-17-14-12-12-13-12-12-------------------|
G|------------------------------------------------------------|
D|------------------------------------------------------------|
A|------------------------------------------------------------|
E|------------------------------------------------------------|
G                      A                                  C 
Veja quanto livro na estante, Don Quixote, o cavaleiro andante,
                               G  (Riff 10) 
 luta a vida inteira contra o rei...

D                           C                              D         
Joga as cartas, leia minha sorte, tanto faz a vida como a morte,
                         G (Riff 11)
o pior de tudo eu já passei.

G                          Bm
Do passado eu me esqueci, no presente eu me perdi
C             A            D (Riff 12)
Se chamarem, diga que eu saí
G                          Bm
Do passado eu me esqueci, no presente eu me perdi
C            D           G  (Riff 13)                      
Se chamarem, diga que eu saí...   
Fim||/



Riff 1
E|---5-5-3-2------|
B|------------5---|
G|----------------|
D|----------------|
A|----------------|
E|----------------|

Riff 2
E|--------11-----------10--|
B|--10/12----12\10-8-------|
G|-------------------9-----|
D|-------------------------|
A|-------------------------|
E|-------------------------|

Riff 3
E|-----------3--5-3-7-7-(5)--|
B|-------3-5-----------------|
G|---2/4---------------------|
D|---------------------------|
A|---------------------------|
E|---------------------------|

Riff 4
E|-10~-10-10-10-------10-----|
B|-12~-12-12-12-10/11^-------|
G|---------------------------|
D|---------------------------|
A|---------------------------|
E|---------------------------|

Riff 5
E|------3~--5-6-7-6-5-3------|
B|---------------------------|
G|---/4-4~--6-7-7-7-6-4------|
D|---------------------------|
A|---------------------------|
E|---------------------------|

Riff 6
E|--12^--10-----10---------10--10-8-7-5~--8-8-6-5-3------|
B|----------12-----12\10-8-------------------------------|
G|-------------------------------------------------------|
D|-------------------------------------------------------|
A|-------------------------------------------------------|
E|-------------------------------------------------------|

Riff 7
E|-----------/7-5------------------------|
B|----3-5-3-------7-5--------------------|
G|-/4-----------------7------------------|
D|---------------------------------------|
A|------------------------(/2)-----------|
E|-----------------------------(3)-------|

Riff 8
E|--------10-10--------14-13-12-10-------|
B|---------------------------------------|
G|--10/11--------10/11-------------------|
D|---------------------------------------|
A|---------------------------------------|
E|---------------------------------------|

Riff 9
E|-------------7-7-5----------|
B|------3-5-3--------8~-------|
G|--2/4-----------------------|
D|----------------------------|
A|----------------------------|
E|----------------------------|

Solo



Riff 10
E|--/12-10------------|
B|--------12-10-8-----|
G|--------------------|
D|--------------------|
A|--------------------|
E|--------------------|

Riff 11
E|------10--15-15~-----15--15------|
B|--/12--------15h17~--15--17------|
G|---------------------------------|
D|---------------------------------|
A|---------------------------------|
E|---------------------------------|

Riff 12
E|-----10-10-8-7-5-----------|
B|---------------------------|
G|-/11-----------------------|
D|---------------------------|
A|---------------------------|
E|---------------------------|

Riff 13
E|--7-6-5-3-----------------|
B|----------3/4~~-----------|
G|--------------------------|
D|--------------------------|
A|--------------------------|
E|--------------------------|
Composição de Paulo Coelho / Raul Seixas
Colaboração e revisão:
  • Vinícius Herrmann
  • Jefferson Silva
46.079 exibições
    • ½ Tom
    • A
    • Bb
    • B
    • C
    • Db
    • D
    • Eb
    • E
    • F
    • F#
    • G
    • Ab
  • Adicionar à lista

    0 comentários

    Ver todos os comentários

    Conseguiu tocar?

    2 Tocaram 1 Ainda não

    Grave um vídeo tocando As Minas do Rei Salomão e nos envie!

    00:00 / 00:00
    Outros vídeos desta música
    Repetir Qualidade Automático
    Outros vídeos desta música
    00:00 / 00:00
    Automático

    Cifra Club Pro

    Aproveite o Cifra Club com benefícios exclusivos e sem anúncios
    Cifra Club Pro
    Aproveite o Cifra Club com benefícios exclusivos e sem anúncios
    OK