Cifra Club

In All Rwandas Glory

Rx Bandits

Cifra: Principal (violão e guitarra)
Selo Cifra Club: esta cifra foi revisada para atender aos critérios oficiais da nossa Equipe de Qualidade.
tom: C
Intro:

Guitar 1:

   Dm
E|------------------|------------------|
B|------------------|------------------|
G|------------------|------------------|
D|------------------|---------3p2------| 
A|-3h5-5-5-5---5-5--|-3h5-5-5-----3-0--|
E|------------------|------------------|
  p.m.p.m.p.m.p.m.p.m.p.m.p.m.p.m.p.m.
                           (8x)

Outro:
Guitar 1:

   Am
E|12----------------|------------------|------------------|------------------|
B|13----------------|------------------|------------------|------------------|
G|14141414-----1414-|----1414----1414--|------------------|---1414----14-----|
D|------------------|------------------|------------------|------------------| 
A|------------------|------------------|------------------|------------------|
E|------------------|------------------|------------------|------------------|
  p.m.p.m.     p.m.      p.m.    p.m.                         p.m. 

   Am
E|------------------|------------------|------------------|------------------|
B|------------------|------------------|------------------|------------------|
G|---x1414----1414--|-x14---x14-x14-x--|-x1414-x14-x1414--|-x14-x-x14141414--|
D|------------------|------------------|------------------|------------------| 
A|------------------|------------------|------------------|------------------|
E|------------------|------------------|------------------|------------------|

   Am                                    G add9                  Am11
E|------------------|------------------|------10--10--10--|--10--10--10------|
B|--------13--------|------12--131313--|------12--12--12--|--12--13--1313----|
G|1414141414141414--|14141414----------|1414141414141212--|121214141414------|
D|------------------|------------------|------------------|------------------|
A|------------------|------------------|------------------|------------------|
E|------------------|------------------|------------------|------------------|
  p.m.p.m.  p.m.p.m.p.m.p.m.p.m.p.m.p.m.p.m.p.m.

   Am11
E|------------------|----10-x101010-x--|-x1010-x10101010--|1010101010101010--|
B|13------13--------|----13-x131313-x--|-x1313-x13131313--|1313131313131313--|
G|14141414--141414--|141414-x141414-x--|-x1414-x14141414--|1414141414141414--|
D|------------------|------------------|------------------|------------------|
A|------------------|------------------|------------------|------------------|
E|------------------|------------------|------------------|------------------|
    p.m.p.m.p.m.p.m. p.m.p.m.p.m.p.m.p.m.p.m.p.m.p.m.

A little break and then...

   Am                 Asus2
E|1212-x-x-x-x-x-x--|1212---x1212-x-x--|
B|1313-x-x-x-x-x-x--|1212---x1212-x-x--|
G|1414-x-x-x-x-x-x--|1414---x1414-x-x--|
D|------------------|------------------| 
A|------------------|------------------|
E|------------------|------------------|
                            (3x)
   Am                 A7
E|1212-x-x-x-x-x-x--|1515151515151515--|
B|1313-x-x-x-x-x-x--|1313131313131313--|
G|1414-x-x-x-x-x-x--|1414141414141414--|
D|------------------|------------------|
A|------------------|------------------|
E|------------------|------------------|

   Am                 Asus2              Am                 Asus2
E|1212-x-x-x-x-x-x--|1212---x1212-x-x--|1212-x-x-x-x-x--xx|1212--xx1212-x--xx|
B|1313-x-x-x-x-x-x--|1212---x1212-x-x--|1313-x-x-x-x-x--xx|1212--xx1212-x--xx|
G|1414-x-x-x-x-x-x--|1414---x1414-x-x--|1414-x-x-x-x-x--xx|1414--xx1414-x--xx|
D|------------------|------------------|------------------|------------------| 
A|------------------|------------------|------------------|------------------| 
E|------------------|------------------|------------------|------------------|

   Am                 Asus2              Am                 Asus2
E|1212-x-x-x-x-x-x--|1212---x1212-x-x--|1212-x-x-x-x-x-x--|1212--------------|
B|1313-x-x-x-x-x-x--|1212---x1212-x-x--|1313-x-x-x-x-x-x--|1212--121212121212| 
G|1414-x-x-x-x-x-x--|1414---x1414-x-x--|1414-x-x-x-x-x-x--|1414--141414141414| 
D|------------------|------------------|------------------|------------------| 
A|------------------|------------------|------------------|------------------| 
E|------------------|------------------|------------------|------------------| 
                                                                Sixteenth (x2)
 
   Am
E|------------------|
B|------------------|
G|14----------------|
D|------------------|
A|------------------|
E|------------------|
Outros vídeos desta música
    407 exibições
      • ½ Tom
      • A
      • Bb
      • B
      • C
      • Db
      • D
      • Eb
      • E
      • F
      • F#
      • G
      • Ab
    • Adicionar à lista

    Afinação da cifra

    Afinador online

      0 comentários

      Ver todos os comentários

      Entre para o Cifra Club PRO

      Tenha acesso a benefícios exclusivos no App e no Site

      • Chega de anúncios

      • Badges exclusivas

      • Mais recursos no app do Afinador

      • Atendimento Prioritário

      • Aumente seu limite de lista

      • Ajude a produzir mais conteúdo

      Cifra Club Pro

      Aproveite o Cifra Club com benefícios exclusivos e sem anúncios
      Cifra Club Pro
      Aproveite o Cifra Club com benefícios exclusivos e sem anúncios
      Ops (: Contenido disponible sólo en portugués.
      OK