Cifra Club

In Case Of Fire

Sandwich

Cifra: Principal (violão e guitarra)
tom: D
Tabbed by: John Vic L. de Leon
Email: *

course TEC-B. this is amazing. very catchy and cute. the solo part is verly
likable and innovative, by the way, who's doing it? MONg or Diego? i think
it's mong..... correct me if im wrong guyz!!!

Tuning: standard
intro:
distorted guitar wow!!!!

e|--------------------------------------------------------------------------|
B|-----------------------------------------------0-0---------------0-0------|
G|---------7-------------------7--------------------------------------------|
D|-----7-------7/9---------7------7/9--------4-------4---------4------4-----|
A|------------------------------------------------------5---------------5---|
E|-7-7---7---7--------7-7----7---7--------3-3--3------------3-3--3----------|

verse:
this is pretty much is it!!!(haha!!!)
repeat this thing over and over throughout the
duration of the verse
e|---------------------------------------------------------------------------|
B|-----------------------------0-0-------------------------------------------|
G|------6---7-7--------------------------------------------------------------|
D|------7---------7/9------4-------4-----------------------------------------|
A|--------------------------5---------5--------------------------------------|
E|--7-7-----------------3-3--------------------------------------------------|

chorus:
guitar one does it this way
distorted guitar pa rin!!!

e|--------------------------------------------------------------------------|
B|-----7---7----7---7----7----7----7---7------------------------------------|
G|-------7--------7--------7---------7--------------------------------------|
D|---0-------0---------0---------0------------------------------------------|
A|--------------------------------------------------------------------------|
E|--------------------------------------------------------------------------|

e|---------------------------------------------------------------------------|
B|-----7---7----7---7----7----7----7---7-------------------------------------|
G|-------7--------7--------7---------7---------------------------------------|
D|---------------------------------------------------------------------------|
A|---0-------0--------0---------0--------------------------------------------|
E|---------------------------------------------------------------------------|

on the harmonics part: im not quite sure if they really use harmonics in hir
i think they use  wah and expression pedal over a chord that i will
still gonna figure out soon and post it. May be that chord is "G" emphasized
by a wah or expression pedal. i dont know, not quite sure * it does
sound pretty good, try it.
e|--------------------------------------------------------------------------|
B|------7---7----7---7----7----7----7---7-----------------------------------|
G|--------7--------7--------7---------7-------------------------------------|
D|----------------------------------------then--55-(7)(7)-------------------|
A|----------------------------------------------55-(7)(7)-harmonics-(4x)----|
E|---7--------7--------7---------7--------------33—(7)(7)-------------------|


guitar 2's part:
these are chords, the number of times you will hit those for strumming
is indicated, have fun!!!
e|-------------------------[-------------------------------------------------|
B|-------------------------[-------------------------------------------------|
G|-7-------7-------7-------[-------------------------------------------------|
D|-7-(12x)-7-(12x)-7-(12x)-[--55--(7)(7)-------------------------------------|
A|-5-----------------------[--55--(7)(7)-harmonics (4x)----------------------|
E|---------5-------7-------[--33--(7)(7)-------------------------------------|

here is the little part right after the first chorus
e|--------------------------------------------------------------------------|
B|--------------------------------------------------------------------------|
G|----6-7-----9-------------------------------------------------------------|
D|----7-7--7----------4-5-4-5-----------------------------------------------|
A|--------------------5-5-5-5-----------------------------------------------|
E|--7---------------3-------------------------------------------------------|

then do this again for the second verse:
repeat this thing over and over throughout the
duration of the second verse
guitar 1
e|---------------------------------------------------------------------------|
B|-----------------------------0-0-------------------------------------------|
G|------6---7-7--------------------------------------------------------------|
D|------7---------7/9------4-------4-----------------------------------------|
A|--------------------------5---------5--------------------------------------|
E|--7-7-----------------3-3--------------------------------------------------|

guitar 2,I think this is MOng’s part played over verse2
this kinda tricky you listen to the song to figure out the
timing.. this is pretty accurate
e|---------------------------------------------------------------------------|
B|---------------------------------------------------------------------------|
G|---14-x4--11-x4--4-x4------------------------------------------------------|
D|---------------------------------------------------------------------------|
A|---------------------------------------------------------------------------|
E|---------------------------------------------------------------------------|

do chorus again twice

bridge part:

ok.. in this part, they use the same chords as the intro and the verse
and they just kinda mess with their guitar a bit. in this part they included
raimund’s "all the way for you” lyrics.. it is fun. you can also hear the
bass playing alone and things like that, just listen to the song and youll
know wat I mean.

this is a cool part in the bridge… this is mongs part right here
I think he uses delay and chorus with volume swell here (volume swell is
a guitar technique, search the net if you want to know about it. mike of
incubus uses volume swell, I mean a lot!!.)

e|-----10----10----10----10-------------------------------------------------|
B|---0----0-----0-----0-----------------------------------------------------|
G|--------------------------------------------------------------------------|
D|--------------------------------------------------------------------------|
A|--------------------------------------------------------------------------|
E|--------------------------------------------------------------------------|

after the bridge do chorus again twice

the veeeery cool lead part.. this is it.. this is not complete though..
hehe. I am not quite sure hir because I haven’t heard this over and over
again, I just listened to this part for 3 times and transcribed it. im sori
im just lazy to perfect *, this is close enough

e|--------------------------------------------------------------------------|
B|------888--77--------888-77--------101010-88-77----------77-88------------|
G|--------------77------------99------------------77-77-99------------------|
D|-----------------77------------99-----------------------------------------|
A|--------------------------------------------------------------------------|
E|--------------------------------------------------------------------------|

e|----------------------------------------10-----10-----10-----10-----10------|
B|--888--77--------888-77--------10-8p7h8----7h8----7h8---7h8----7h8----------|
G|----------77------------99--------------------------------------------------|
D|-------------77------------99-----------------------------------------------|
A|----------------------------------------------------------------------------|
E|----------------------------------------------------------------------------|

e|----10-99-77------------------------10-99-77-1212-1010-99-12-10-12--1414--|
B|--7-----------1010-77-88-1010-88--7---------------------------------------|
G|--------------------------------------------------------------------------|
D|--------------------------------------------------------------------------|
A|--------------------------------------------------------------------------|
E|--------------------------------------------------------------------------|

e|----1414-1212-1010-1212--1414-1212-1010-1212--1414-1515-1212-1414---------|
B|--------------------------------------------------------------------------|
G|--------------------------------------------------------------------------|
D|--------------------------------------------------------------------------|
A|--------------------------------------------------------------------------|
E|--------------------------------------------------------------------------|

that’s it for now,, the lead parts not complete, but don’t wori
im gon to update you guyzzz!! please rate my tab!!!tnx
LUVU KAT


| /  slide up
|   slide down
| h  hammer-on
| p  pull-off
| ~  vibrato
| +  harmonic
| x  Mute note
============================================================================
Compositor não encontrado.
177 exibições
    • ½ Tom
    • A
    • Bb
    • B
    • C
    • Db
    • D
    • Eb
    • E
    • F
    • F#
    • G
    • Ab
  • Adicionar à lista

    0 comentários

    Ver todos os comentários

    Conseguiu tocar?

    0 Tocaram 0 Ainda não

    Grave um vídeo tocando In Case Of Fire e nos envie!

    00:00 / 00:00
    Outros vídeos desta música
    Repetir Qualidade Automático
    Outros vídeos desta música
    00:00 / 00:00
    Automático

    Cifra Club Pro

    Aproveite o Cifra Club com benefícios exclusivos e sem anúncios
    Cifra Club Pro
    Aproveite o Cifra Club com benefícios exclusivos e sem anúncios
    OK