Cifra Club

Most Beautiful Plague

Say Anything

Cifra: Principal (violão e guitarra)
Selo Cifra Club: esta cifra foi revisada para atender aos critérios oficiais da nossa Equipe de Qualidade.
tom: F
if you can't work out the strumming you shouldn't be playing the guitar.


--0--0--0--------------------2------------------------------------------0---|
--1--0--1--------------------3--------------------0---------------------0---|
--2--2--2--------------------2--------------------2--------2--4--2------1---|
--2--2--2--------------------0--------------------0---------------------2---|
--0--0--0--------------------X--------------------2---------------------2---|
--X--X--X--------------------2------------------------------------------0---|
BABY!! you don't want to     make me cry or i will fill you with the emptiness

----------------0----------------2-2-------(0-0)------------|
----------------1----------------3-3--------3-3-------------|
--1---2----4----2----------------2-2--------1-1-------------|
----------------2----------------4-4--------0-0-------------|
----------------0----------------2-2--------2-2-------------|
----------------X---------------------------0-0-------------|
inside                          OKAY!     ALRIGHT!


------------------------------------------------------------------------------|
------------------------------------------------------------------------------|
----0--------0----------------------------5--------5-----------5--5--5--5--5--|
----------------------x2---------------------2---------2-------2--3--5--3--2--|
-------2--------2---------------------5---------5----------5------------------|
-1--------1-------------------------------------------------------------------|

...beautiful tonight /// burning bright
...curse to you

etc.
Outros vídeos desta música
    194 exibições
      • ½ Tom
      • A
      • Bb
      • B
      • C
      • Db
      • D
      • Eb
      • E
      • F
      • F#
      • G
      • Ab
    • Adicionar à lista

    Afinação da cifra

    Afinador online

      0 comentários

      Ver todos os comentários

      Entre para o Cifra Club PRO

      Tenha acesso a benefícios exclusivos no App e no Site

      • Chega de anúncios

      • Badges exclusivas

      • Mais recursos no app do Afinador

      • Atendimento Prioritário

      • Aumente seu limite de lista

      • Ajude a produzir mais conteúdo

      Cifra Club Pro

      Aproveite o Cifra Club com benefícios exclusivos e sem anúncios
      Cifra Club Pro
      Aproveite o Cifra Club com benefícios exclusivos e sem anúncios
      Ops (: Contenido disponible sólo en portugués.
      OK