Cifra Club

Minne Katosi Päivät

Scandinavian Music Group

Cifra: Principal (violão e guitarra)
Selo Cifra Club: esta cifra foi revisada para atender aos critérios oficiais da nossa Equipe de Qualidade.
tom: C
E|-----------0---------0--------------3-----3-----|
B|-------1------1---------1-------3------3-----3--|
G|------------------------------------------------| x2
D|--3--------------3----------3-------------------|
A|------------------------------------------------|
E|------------------------------------------------|

[Verse 1]

E|-----------0---------0--------------3-----3-----|---------0----------0-------------3-----3-----|
B|-------1------1---------1-------3------3-----3--|------1-----1----------1-------3-----3-----3--|
G|------------------------------------------------|----------------------------------------------|
D|--3--------------3----------3-------------------|--3-------------3----------3------------------|
A|------------------------------------------------|----------------------------------------------|
E|------------------------------------------------|----------------------------------------------|
    Vaikka vieressä on tilaa                          hän   makaa     omalla puolellaan

E|-----------0-------------------0--------------------1--------1--------0------1--|
B|-------1------1------------1-------1------------1------1--------1--------2------|
G|--/2--------------2----0--------------0-----2-------------2--------2------------|
D|--------------------------------------------------------------------------------|
A|--------------------------------------------------------------------------------|
E|--------------------------------------------------------------------------------|
     eilen    hän        huomasi  että        seinästä irtoaa maali 

  (slight dist. & amp; delay)
E|------------------------------------------------------|
B|--------------------17--17----------20------20--------|
G|-----------17--17-----------19-19-------19------19----| x2
D|--17--17----------------------------------------------|
A|------------------------------------------------------|
E|------------------------------------------------------|

E|------------------------------------------------15-------15------|
B|---------------17-----------17----------------------15-------15--|
G|----------17-------17-----------17--------17---------------------|
D|------15---------------15-----------15---------------------------|
A|-----------------------------------------------------------------|
E|-----------------------------------------------------------------|
   ja että ensimmäistä kertaa      hän ei jaksanut odottaa

E|---------------------------------------------------------------------------------|
B|----------17----17-----------------17--------------------------------------------|
G|------17-----17--------17------17----17----------19-19-19-19-19--19-19-19-19-19--|
D|--19---------------19-------17-----------17------19-19-19-19-19--19-19-19-19-19--|
A|-------------------------------------------------17-17-17-17-17--17-17-17-17-17--|
E|---------------------------------------------------------------------------------|
   eilen   hän    huomasi                          ettei      enää jaksa odottaa

[Chorus]

E|------------------------------------------------15-------15-------|
B|---------------17-----------17----------------------15-------15---|
G|----------17-------17-----------17--------17----------------------| x2
D|------15---------------15-----------15----------------------------|
A|------------------------------------------------------------------|
E|------------------------------------------------------------------|
                                                   minne katosi 

E|-----------------------------------------------------------|
B|-----------------------------------------------------------|
G|-----------------------------------------------------------|
D|--2--2--2--2--2--2-/5--5--5--------3---3---3---2--2--2--2--|
A|--3--3--3--3--3--3-/5--5--5---5----5---5---5---0--0--0--0--|
E|------------------------------3----------------------------|
   päivät      joina    et nähnyt    mitään

E|--------------------------------------------------------------------|
B|--------------------------------------------------------------------|
G|--------------------------------------7--7--7--7--7-7-7--7--7--7----|
D|--5---5---5----5---5---5---5---5-\----7--7--7--7--7-7-7--7--7--7----|
A|--3---3---3----5---5---5---5---5-\----5--5--5--5--5-5-5--5--5--5----|
E|---------------3---3---3---3---3-\----------------------------------|
   ilman että hän olisi nähnyt         saman              minne katosi

E|------------------------------------------------------------|
B|------------------------------------------------------------|
G|-----------------------------------7---7---7----------------|
D|--2--2--2--2--2--2-/5--5--5--------7---7---7---2--2--2--2---|
A|--3--3--3--3--3--3-/5--5--5---5----5---5---5---0--0--0--0---|
E|------------------------------3-----------------------------|
  päivät                 joiden aikana hän tottui

E|---------------------------------------------------------------|
B|---------------------------------------------------------------|
G|---------------------------------------------------------------|
D|--5---5---5---5---5---5---5---5-----3--3--3--3--3---3--3--3--3-|
A|--3---3---3---3---5---5---5---5-----3--3--3--3--3---3--3--3--3-|
E|------------------3---3---3---3-----1--1--1--1--1---1--1--1--1-|
                       hän tottui syliisi

E|--------------------------------------------------------|
B|--------------------17--17----------20------20----------|
G|-----------17--17-----------19-19-------19------19------| x2
D|--17--17------------------------------------------------|
A|--------------------------------------------------------|
E|--------------------------------------------------------|

E|--------------------------------------------------------|
B|--------------------------------------------------------|
G|--19--(19)---\--14-~~~--/16------(16)-------------------|
D|--------------------------------------------------------|
A|--------------------------------------------------------|
E|--------------------------------------------------------|

[Verse 2]                  

E|------------------------------------------------15-------15------|
B|---------------17-----------17----------------------15-------15--|
G|----------17-------17-----------17--------17---------------------|
D|------15---------------15-----------15---------------------------|
A|-----------------------------------------------------------------|
E|-----------------------------------------------------------------|
                     kasvit on kuolleet         ruukkuihin

E|------------------------------------------------15-------15------|
B|---------------17-----------17----------------------15-------15--|
G|----------17-------17-----------17--------17---------------------|
D|------15---------------15-----------15---------------------------|
A|-----------------------------------------------------------------|
E|-----------------------------------------------------------------|
           hän         istuu               ajatuksissaan

E|-----------------------------------------------17------17--------|
B|----------17-----------17------15---------/20------20------------|
G|------17------17-----------17------17----------------------------|
D|--15--------------15---------------------------------------------|
A|-----------------------------------------------------------------|
E|-----------------------------------------------------------------|


E|---------------------------------------------------------------------------------|
B|-----------17-------------------17-----------------------------------------------|
G|-------17------17-----------17------17-------19--19-19--19--19--19-19-19-19-19---|
D|---19--------------19---17--------------17---19--19-19--19--19--19-19-19-19-19---|
A|---------------------------------------------17--17-17--17--17--17-17-17-17-17---|
E|---------------------------------------------------------------------------------|
                                       ettei  näkisi sinun      palaavan

E|---------------------------------------------------------------------------17----|
B|-----------------------------------------------------------17--17----17-20-------|
G|-----------------------------------------------------------19--19-19-------------|
D|---------------------------------------------------------------------------------|
A|---------------------------------------------------------------------------------|
E|---------------------------------------------------------------------------------|

   
E|------------------------------------------------15-------15------|
B|---------------17-----------17----------------------15-------15--|
G|----------17-------17-----------17--------17---------------------|
D|------15---------------15-----------15---------------------------|
A|-----------------------------------------------------------------|
E|-----------------------------------------------------------------|
             ja  että    ensimmäistä         kertaa 

E|-----------------------------------------------17------17--------|
B|----------17-----------17------15----------20------20------------|
G|------17------17-----------17------17----------------------------|
D|--15--------------15---------------------------------------------|
A|-----------------------------------------------------------------|
E|-----------------------------------------------------------------|
                      hän   ei tuntenut    mitään

E|---------------------------------------------------------------------------------|
B|-----------17-------------------17-----------------------------------------------|
G|-------17------17-----------17------17-------19--19-19--19--19--19-19-19-19-19---|
D|---19--------------19---17--------------17---19--19-19--19--19--19-19-19-19-19---|
A|---------------------------------------------17--17-17--17--17--17-17-17-17-17---|
E|---------------------------------------------------------------------------------|

[Chorus]

E|-----------------------------------------------------------|
B|-----------------------------------------------------------|
G|-----------------------------------------------------------|
D|--2--2--2--2--2--2-/5--5--5--------3---3---3---2--2--2--2--|
A|--3--3--3--3--3--3-/5--5--5---5----5---5---5---0--0--0--0--|
E|------------------------------3----------------------------|

E|------------------------------------------------------------------|
B|------------------------------------------------------------------|
G|--------------------------------------7--7--7--7--7-7-7--7--7--7--|
D|--5---5---5----5---5---5---5---5-\----7--7--7--7--7-7-7--7--7--7--|
A|--3---3---3----5---5---5---5---5-\----5--5--5--5--5-5-5--5--5--5--|
E|---------------3---3---3---3---3-\--------------------------------|

E|-------------------------------------------------------------|
B|-------------------------------------------------------------|
G|-----------------------------------7---7---7-----------------|
D|--2--2--2--2--2--2-/5--5--5--------7---7---7---2--2--2--2----|
A|--3--3--3--3--3--3-/5--5--5---5----5---5---5---0--0--0--0----|
E|------------------------------3------------------------------|

E|---------------------------------------------------------------|
B|---------------------------------------------------------------|
G|---------------------------------------------------------------|
D|--5---5---5---5---5---5---5---5-----3--3--3--3--3---3--3--3--3-|
A|--3---3---3---3---5---5---5---5-----3--3--3--3--3---3--3--3--3-|
E|------------------3---3---3---3-----1--1--1--1--1---1--1--1--1-|

[Solo]
                                b+½ r
E|--20-20-20-20-20-20-20-20-20--19--(19)-17---19-19-19-19----19--19-17----|
B|------------------------------------------------------------------------|
G|------------------------------------------------------------------------|
D|------------------------------------------------------------------------|
A|------------------------------------------------------------------------|
E|------------------------------------------------------------------------|

E|----------8--------------------8---------------7-------------7----------|
B|----6-------6-----------6--------6--------5------5------5-------5-------|
G|--9---9-------9-------9---9---------9---7---7------7--7---7--------7----|
D|------------------------------------------------------------------------|
A|------------------------------------------------------------------------|
E|------------------------------------------------------------------------|

                                 b+½ r                                   b+1 r
E|--20-20-20-20-20-20-20-20-20--19--(19)-17---19--17--15--------------------------------15-17-----------|
B|--------------------------------------------------------19-20-19-17\15-15-(15)--15-15-----------------|
G|------------------------------------------------------------------------------------------------------|
D|------------------------------------------------------------------------------------------------------|
A|------------------------------------------------------------------------------------------------------|
E|------------------------------------------------------------------------------------------------------|

E|---------5---------------5---------------7-----------------2--3p2-------------2-----------------------|
B|----3------3--------3------3---------------7-------------3--------3---------3---3---------------------|
G|--5---5------5----5---5------5-------7-------7---------2------------2-----2-------2-------------------|
D|---------------------------------7/9---9-------9-----------------------0-------------5-5-5-5-5-5-5-5--|
A|-------------------------------------------------------------------------------------5-5-5-5-5-5-5-5--|
E|-------------------------------------------------------------------------------------3-3-3-3-3-3-3-3--|

                                b+½ r
E|--20-20-20-20-20-20-20-20-20--19--(19)-17---19-19-19-19----19--19-17----|
B|------------------------------------------------------------------------|
G|------------------------------------------------------------------------|
D|------------------------------------------------------------------------|
A|------------------------------------------------------------------------|
E|------------------------------------------------------------------------|

                                 b+½ r                                   b+1 r
E|--20-20-20-20-20-20-20-20-20--19--(19)-17---19--17--15---------------------------------------|
B|--------------------------------------------------------19-20-19-17\15-15-(15)--15-15-15-15--|
G|---------------------------------------------------------------------------------------------|
D|---------------------------------------------------------------------------------------------|
A|---------------------------------------------------------------------------------------------|
E|---------------------------------------------------------------------------------------------|

[Chorus]

   unison bends ------------------------------|
E|------------15-15-15-15---17-17-17-17-17-17----|
B|--17-17-17--18-18-18-18---20-20-20-20-20-20----|
G|--19-19-19-------------------------------------|
D|-----------------------------------------------|
A|-----------------------------------------------|
E|-----------------------------------------------|
  Minne     katosi           päivät

  unison bends -------------------------|
E|------------15-15-15-15---17-17-17-17----------|
B|--17-17-17--18-18-18-18---20-20-20-20----------|
G|--19-19-19-------------------------------------|
D|-----------------------------------------------|
A|-----------------------------------------------|
E|-----------------------------------------------|

E|-----------------------------------------------------------|
B|-----------------------------------------------------------|
G|-----------------------------------------------------------|
D|--2--2--2--2--2--2-/5--5--5--------3---3---3---2--2--2--2--|
A|--3--3--3--3--3--3-/5--5--5---5----5---5---5---0--0--0--0--|
E|------------------------------3----------------------------|
  Minne   katosi    päivät     joina   et nähnyt mitään

E|------------------------------------------------------------------|
B|------------------------------------------------------------------|
G|--------------------------------------7--7--7--7--7-7-7--7--7--7--|
D|--5---5---5----5---5---5---5---5-\----7--7--7--7--7-7-7--7--7--7--|
A|--3---3---3----5---5---5---5---5-\----5--5--5--5--5-5-5--5--5--5--|
E|---------------3---3---3---3---3-\--------------------------------|
  ilman että    hän       olisi  nähnyt saman

E|------------------------------------------------------------|
B|------------------------------------------------------------|
G|-----------------------------------7---7---7----------------|
D|--2--2--2--2--2--2-/5--5--5--------7---7---7---2--2--2--2---|
A|--3--3--3--3--3--3-/5--5--5---5----5---5---5---0--0--0--0---|
E|------------------------------3-----------------------------|
 Minne katosi päivät          joiden aikana hän tottui

E|----------------------------------------|
B|----------------------------------------|
G|------------------------------------2---|
D|--5---5---5---5---5---5---5---5-----3---|
A|--3---3---3---3---5---5---5---5-----3---|
E|------------------3---3---3---3-----1---|
     hän tottui             syliisi
Outros vídeos desta música
    5 exibições
      • ½ Tom
      • A
      • Bb
      • B
      • C
      • Db
      • D
      • Eb
      • E
      • F
      • F#
      • G
      • Ab
    • Adicionar à lista

    Afinação da cifra

    Afinador online

      0 comentários

      Ver todos os comentários

      Entre para o Cifra Club PRO

      Tenha acesso a benefícios exclusivos no App e no Site

      • Chega de anúncios

      • Badges exclusivas

      • Mais recursos no app do Afinador

      • Atendimento Prioritário

      • Aumente seu limite de lista

      • Ajude a produzir mais conteúdo

      Cifra Club Pro

      Aproveite o Cifra Club com benefícios exclusivos e sem anúncios
      Cifra Club Pro
      Aproveite o Cifra Club com benefícios exclusivos e sem anúncios
      Ops (: Contenido disponible sólo en portugués.
      OK