Cifra Club

Aprenda

From This Moment On

Shania Twain

Cifra: Versão 2 (violão e guitarra)
tom: B (forma dos acordes no tom de G) Capotraste na 4ª casa

Piano 
e|----------------------------------------------------
B|-------8--7--8-----------8--7--8--------------------
G|----------------7-----5-----------7-----------------
D|----5-----------------------------------------------
A|----------------------------------------------------
E|----------------------------------------------------

e|----------------------------------------------------
B|---------8--7--8--7--------7--8--7--8---------------
G|----7-------------------3---------------------------
D|----------------------------------------------------
A|----------------------------------------------------
E|----------------------------------------------------

Solo violão
e|----------------------------------------------------
B|----------------------------------------------------
G|-----7-5-7---------5-7-5-7--------------------------
D|---5------------------------------------------------
A|----------------------------------------------------
E|----------------------------------------------------

          G                  D
From this moment, life has begun
          C       D  
From this moment, you are the one
      C                       G
Right beside you is where I belong
Am        D      G   
From this moment on.
          G                   D
From this moment, I have been blessed
       C        D    
I live only for your happiness
        C                           G 
And for your love, I'd give my last breath
Am        D      C
From this moment on.
  G                                C 
I give my hand to you, with all my heart
      D                                    G            
Can't wait to live my life with you, can't wait to start
G                        C 
You and I will never be apart
   Em          C      G        D
My dreams came true because of you.
                                                  
          A                    E
From this moment, as long as I live
       D           E 
I will love you, I promise you this
         D                  A 
There is nothing I wouldn't give
Bm        E      D
From this moment on.


Solo Guitarra (2:55 min)
   A
e|---------12-----12/14-------------------------------
B|--------------------------12b14~~~~(bend lento)-----
G|--/10-----------------------------------------------
D|----------------------------------------------------
A|----------------------------------------------------
E|----------------------------------------------------
    F#m                                  D
e|----------------------------------------------------
B|--12b14r12p10-----9/10----------------17b18r17------
G|-----------------------11\---------14---------------
D|----------------------------------------------------
A|----------------------------------------------------
E|----------------------------------------------------
             
                             E
e|--------16/17b19-----------19b21--------------------
B|----------------------------------------------------
G|--14------------------------------------------------
D|---------------------19-----------------------------
A|----------------------------------------------------
E|----------------------------------------------------

A                              D
You're the reason I believe in love
    E                                        A
And you're the answer to my prayers from up above
A                              D
All we need is just the two of us
   F#m         D      A        E [rest, and slap that capo on the 4th fret]
My dreams came true because of you.
          B                    F#
From this moment, as long as I live
       E           F#  
I will love you, I promise you this
         E                  B
There is nothing I wouldn't give
C#m        F#
From this moment
Tag:
       E                      B
I will love you as long as I live
C#m       F#      B   F#  B
From this moment on.

  Finalização Violão: 

e|-------------------------------------19HN-----------
B|------------4/12HN---12HN-------12HN----------------
G|-----4--6-------------------------------------------
D|--4-------------------------------------------------
A|----------------------------------------------------
E|----------------------------------------------------
                                  
Obs:

/  - Slide on
\  - Slide off
b  - Bend
r  - Reverse Bend
p  - Pull off
h  - Hammer on
~~ - Vibrato
HN - Harmônico Natural
Trascrito e Revisado por Eduardo Caldeira Nichele & Cleonir Caldeira Jr.
Composição de Robert John Mutt Lange / Shania Twain
Colaboração e revisão:
  • Eduardo Nichele
44.569 exibições
    • ½ Tom
    • A
    • Bb
    • B
    • C
    • Db
    • D
    • Eb
    • E
    • F
    • F#
    • G
    • Ab
  • Adicionar à lista

    0 comentários

    Ver todos os comentários

    Conseguiu tocar?

    2 Tocaram 1 Ainda não

    Grave um vídeo tocando From This Moment On e nos envie!

    00:00 / 00:00
    Outros vídeos desta música
    Repetir Qualidade Automático
    Outros vídeos desta música
    00:00 / 00:00
    Automático

    Cifra Club Pro

    Aproveite o Cifra Club com benefícios exclusivos e sem anúncios
    Cifra Club Pro
    Aproveite o Cifra Club com benefícios exclusivos e sem anúncios
    OK