Cifra Club

Friendly

Something For Kate

Cifra: Principal (violão e guitarra)
tom: D
(intro)

E|-0-----0---5-5---5---5-------------------------------------
B|-0-----0---------------------------------------------------
G|-0-----2-----2---2---2-------------------------------------
D|-2-----1-----4---5---4-------------------------------------
A|-2-----2-----3---3---3-------------------------------------
E|-0-----0---------------------------------------------------

(verso)
E|---------------------------------------------------------------
B|---------------------------------------------------------------
G|---------------------------------------------------------------
D|-2---2---2---2---4---5---4---7---7---7---7---7---7---7---7---7-
A|-2---2---2---2---2---2---2---7---7---6---6---7---7---6---6---7-
E|-0---0---3---0---0---0---0---5---5---5---5---5---5---5---5---5-

(refrão)
E|---|-0-----0-0-0---0-----0-----------------------------------
B|---|-0-----1-3-1---1-----0-----------------------------------
G|-4-|-0-----0-0-0---2-----0-----------------------------------
D|-4-|-2-----2-3-2---2-----2-----------------------------------
A|-2-|-2-----3-4-3---0-----2-----------------------------------
E|---|-0-----0-0-0---0-----0-----------------------------------

(ponte)
E|-0---0---0---0-------------------------------------------
B|-0---0---0---0-------------------------------------------
G|-0---0---0---2-------------------------------------------
D|-2---1---0---2-------------------------------------------
A|-2---2---2---4-------------------------------------------
E|-0---0---0---0-------------------------------------------

E|-0-----0-----0-------------------------------------------
B|-1-----1-----0-------------------------------------------
G|-2-----0-----0-------------------------------------------
D|-2-----2-----2-------------------------------------------
A|-0-----3-----2-------------------------------------------
E|-0-----0-----0-------------------------------------------

E|-0-----0-----0-----2-------------------------------------
B|-1-----1-----3-----3-------------------------------------
G|-2-----0-----2-----2-------------------------------------
D|-2-----2-----0-----0-------------------------------------
A|-0-----3-----0-----0-------------------------------------
E|-0-----0-------------------------------------------------
00:00 / 00:00
Outros vídeos desta música
Repetir
Outros vídeos desta música
Compositor não encontrado.
Colaboração e revisão:
  • Jefferson Sousa
39 exibições
    • ½ Tom
    • A
    • Bb
    • B
    • C
    • Db
    • D
    • Eb
    • E
    • F
    • F#
    • G
    • Ab
  • Adicionar à lista

    0 comentários

    Ver todos os comentários

    Entre para oCifra Club PRO

    Tenha acesso a benefícios exclusivos no App e no Site

    • Chega de anúncios

    • Prioridade de compra em lançamentos

    • Mais recursos no app do Afinador

    • Atendimento Prioritário

    • Descontos nos produtos Cifra Club

    • Ajude a produzir mais conteúdo

    00:00 / 00:00

    Cifra Club Pro

    Aproveite o Cifra Club com benefícios exclusivos e sem anúncios
    Cifra Club Pro
    Aproveite o Cifra Club com benefícios exclusivos e sem anúncios
    OK