Cifra Club

Victory My Heart Is No Longer Mine To Give

Structures

Cifra: Principal (violão e guitarra)
Selo Cifra Club: esta cifra foi revisada para atender aos critérios oficiais da nossa Equipe de Qualidade.
tom: Eb
E|------------------------|------------------------|
B|---------------11-------|------------------------|
G|--------8s10------------|----10-10-10s8-8-8s7----|
D|------------------------|------------------------|
A|------------------------|------------------------|
E|------------------------|------------------------|

E|------------------------|----------------------------|
B|---------------11-------|---------------------8p6----|
G|--------8s10------------|----10-10-10s8-8-8s7--------|
D|------------------------|-------------------------8--|
A|------------------------|----------------------------|
E|------------------------|----------------------------|

Second bit:

E|------------------------|
B|------------------------|
G|------------------------|
D|--8s10--5---5s3--3--3s8-|
A|------------------------|
E|------------------------|
Outros vídeos desta música
    7 exibições
      • ½ Tom
      • A
      • Bb
      • B
      • C
      • Db
      • D
      • Eb
      • E
      • F
      • F#
      • G
      • Ab
    • Adicionar à lista

    Afinação da cifra

    Afinador online

      0 comentários

      Ver todos os comentários

      Conseguiu tocar?

      0Tocaram0Ainda não

      Grave um vídeo tocando Victory My Heart Is No Longer Mine To Give e nos envie!

      Toque também

      1. Imagem do artista VolumesVahle Volumes
      2. Imagem do artista CounterPartsIsolation CounterParts
      3. Imagem do artista ErraDreamwalkers Erra
      4. Imagem do artista NorthlaneSolar Northlane

      Entre para o Cifra Club PRO

      Tenha acesso a benefícios exclusivos no App e no Site

      • Chega de anúncios

      • Badges exclusivas

      • Mais recursos no app do Afinador

      • Atendimento Prioritário

      • Aumente seu limite de lista

      • Ajude a produzir mais conteúdo

      Cifra Club Pro

      Aproveite o Cifra Club com benefícios exclusivos e sem anúncios
      Cifra Club Pro
      Aproveite o Cifra Club com benefícios exclusivos e sem anúncios
      Ops (: Contenido disponible sólo en portugués.
      OK