Cifra Club

Aprenda

The Less I Know The Better

Tame Impala

Cifra: Principal (violão e guitarra)
tom: D
[Intro] C#m  B  E  C#m
        C#m  B  E  C#m
        C#m  B  E  C#m

E|----------------------------------------------------------------------|
B|----------------------------------------------------------------------|
G|-----6/8-6------------------------------------------------------------|
D|-------------9-6------------------------------------------------------|
A|--------------------------4---4-4-------------------------------------|
E|----------------------------------------------------------------------|

E|----------------------------------------------------------------------|
B|----------------------------------------------------------------------|
G|-----6/8-6---------------------6/8--6/8-6-----------------------------|
D|-----------------------------------------------9--6-------------------|
A|-------------------4-------------------------------------7--7-7-------|
E|----------------------------------------------------------------------|

E|----------------------------------------------------------------------|
B|----------------------------------------------------------------------|
G|--------9/11-9------------6/8-6---------------------------------------|
D|--------------------------------------9-6-----------------------------|
A|--------------------7----------------------------4--4-4---------------|
E|----------------------------------------------------------------------|

        C#m
Someone said they left together
B     E
I ran out the door to get her
B       C#m                    C#m9
She was holding hands with Trevor
B       E
Not the greatest feeling ever
B       C#m
I said pull yourself together
B          E
You should try your luck with heather
B      C#m                     C#m9
Then I thought they slept together
B       E                       B  C#m  B
Oh, the less I know the better
    E
The less I know the better

      E               C#m          E7
Oh my love, can't you see yourself by my side?
      E                           C#m         E7         B
No surprise, when you're on his shoulder like every night
      E               C#m             D7
Oh my love, can't you see that you're on my mind?
         E                            C#m     E7
Don't suppose we could convince your lover to change his mind
       C#m    B  E  B
So goodbye

          C#m
She said "It's not now or never
B        E
Wait ten years, we'll be together"
B       C#m                 C#m9
I said "Better late than never
B          E                      B  C#m  B
Just don't make me wait forever"
      E                     B  C#m  B
Don't make me wait forever
      E
Don't make me wait forever

      E               C#m         D7
Oh my love, can't you see yourself by my side?
         E                             C#m    D7
Don't suppose you could convince your lover to change his mind
E                     G#m
I was doing fine without you
  C#m                    A          A9
Till I saw your face, now I can't erase
E                      G#m
Giving in to all his bullshit
  C#m                    A              A9
Is this what you want, is this who you are?
E                     G#m
I was doing fine without you
  C#m                   A            A9
Till I saw your eyes turn away from mine
E                           G#m
Oh sweet talking where he wants you
        C#m                A             A9  E  G#m
Said come on Superman, say your stupid line
        C#m                A             A9  E  G#m
Said come on Superman, say your stupid line
        C#m                A             A9
Said come on Superman, say your stupid line

[Final] E  G#m  C#m  A  A9
Composição de Kevin Parker
91.850 exibições
  • Simplificar cifra
    • ½ Tom
    • A
    • Bb
    • B
    • C
    • Db
    • D
    • Eb
    • E
    • F
    • F#
    • G
    • Ab
  • Adicionar à lista

    0 comentários

    Ver todos os comentários

    Conseguiu tocar?

    19 Tocaram 7 Ainda não

    Grave um vídeo tocando The Less I Know The Better e nos envie!

    00:00 / 00:00
    outros vídeos desta música
    repetir qualidade Automático
    Outros vídeos desta música
    00:00 / 00:00
    Automático

    Cifra Club Pro

    Aproveite o Cifra Club com benefícios exclusivos e sem anúncios
    Cifra Club Pro
    Aproveite o Cifra Club com benefícios exclusivos e sem anúncios
    OK