Cifra Club

Aprenda

Homem Chora Sim

Tayrone Cigano

Cifra: Principal (violão e guitarra)
tom: A
[Intro] A  E  F#m  A  E
                                                   
E|------------------------------------------|
B|------------------5/7-7-9-7/5-5-----------|
G|-2-4-4/6-6--2-2-2-------------------------|
D|------------------------------------------|
A|------------------------------------------|
E|------------------------------------------|

E|------------------------------------------|
B|---3/5-5-7-5/3-3--7-5-5/10--7-5-----------|
G|-4------------------------------4/6-------|
D|------------------------------------------|
A|------------------------------------------|
E|------------------------------------------|

E|------------------------------------------|
B|-3-5--3-----------------------------------|
G|--------4-4-------------------------------|
D|------------------------------------------|
A|------------------------------------------|
E|------------------------------------------|

A                     (pausa)           E
Quando eu te pedi perdão, você virou a cara 
Bm                     D                 A    E
Me disse um milhão de nãos e me mandou embora 
A               (pausa)                E
Me falou que ia doer, mais que um dia sara 
Bm               D                         A
Não me vejo sem você, e o que que eu faço agora 

           F#m
Com tanta dor
                                            E/G#
Quando você bateu aquela porta o mundo desabou 
                                          D   A/C#
Quem disse que homem não chora muito se enganou 
   Bm                                   E/G#
Se a maioria é tão forte eu vou falar por mim 
        D9               E9/G#        F#m
Homem chora sim, homem chora sim, Chora sim 

[Solo] F#m  E  Bm  A  E

E|------------------------------------------|
B|-------5/7-7-9-7/5-5----------------------|
G|-2-2-2------------------------------------|
D|------------------------------------------|
A|------------------------------------------|
E|------------------------------------------|
                                                 
E|------------------------------------------|
B|---3/5-5-7-5/3-3--7-5-5/10--7-5-----------|
G|-4------------------------------4/6-------|
D|------------------------------------------|
A|------------------------------------------|
E|------------------------------------------|

E|------------------------------------------|
B|-3-5--3-----------------------------------|
G|--------4-4-------------------------------|
D|------------------------------------------|
A|------------------------------------------|
E|------------------------------------------|

A                     (pausa)           E
Quando eu te pedi perdão, você virou a cara 
Bm                     D                 A    E9
Me disse um milhão de nãos e me mandou embora 
A                (pausa)               E9
Me falou que ia doer, mais que um dia sara 
Bm               D                         A
Não me vejo sem você, e o que que eu faço agora 
           F#m
Com tanta dor 
                                            E9/G#
Quando você bateu aquela porta o mundo desabou 
                                          D9   A/C#
Quem disse que homem não chora muito se enganou 
   Bm                                   E/G#
Se a maioria é tão forte eu vou falar por mim 
        D9               E
Homem chora sim, homem chora sim, Chora sim 
           F#m
Com tanta dor 
                                            E9/G#
Quando você bateu aquela porta o mundo desabou 
                                          D9   A/C#
Quem disse que homem não chora muito se enganou 
   Bm                                   E/G#
Se a maioria é tão forte eu vou falar por mim 
        D9               E
Homem chora sim, homem chora sim, Chora sim 

[Final] F#m  D  A  E  A
Compositor não encontrado.
Colaboração e revisão:
  • Ewerton Alves
15.298 exibições
  • Simplificar cifra
    • ½ Tom
    • A
    • Bb
    • B
    • C
    • Db
    • D
    • Eb
    • E
    • F
    • F#
    • G
    • Ab
  • Adicionar à lista

    0 comentários

    Ver todos os comentários

    Conseguiu tocar?

    2 Tocaram 0 Ainda não

    Grave um vídeo tocando Homem Chora Sim e nos envie!

    00:00 / 00:00
    Outros vídeos desta música
    Repetir Qualidade Automático
    Outros vídeos desta música
    00:00 / 00:00
    Automático

    Cifra Club Pro

    Aproveite o Cifra Club com benefícios exclusivos e sem anúncios
    Cifra Club Pro
    Aproveite o Cifra Club com benefícios exclusivos e sem anúncios
    OK