Cifra Club

Need You Most So Sick

The Kid LAROI

Cifra: Principal (violão e guitarra)
Selo Cifra Club: esta cifra foi revisada para atender aos critérios oficiais da nossa Equipe de Qualidade.
tom: C
E|--1---0-----------------------------|
B|----------1-------------------------|
G|---------------2--------------------|
D|--0---------------------------------|
A|---------------1--------------------|
E|------------------------------------|

E|------------------------------------|
B|------------------------------------|
G|------0---2-----------0-------------|
D|--3-----------2---3-----------------|
A|--------------3---------------------|
E|--1---------------------------------|
Outros vídeos desta música
    80 exibições
      • ½ Tom
      • A
      • Bb
      • B
      • C
      • Db
      • D
      • Eb
      • E
      • F
      • F#
      • G
      • Ab
    • Adicionar à lista

    Afinação da cifra

    Afinador online

      0 comentários

      Ver todos os comentários

      Entre para o Cifra Club PRO

      Tenha acesso a benefícios exclusivos no App e no Site

      • Chega de anúncios

      • Badges exclusivas

      • Mais recursos no app do Afinador

      • Atendimento Prioritário

      • Aumente seu limite de lista

      • Ajude a produzir mais conteúdo

      Cifra Club Pro

      Aproveite o Cifra Club com benefícios exclusivos e sem anúncios
      Cifra Club Pro
      Aproveite o Cifra Club com benefícios exclusivos e sem anúncios
      Ops (: Contenido disponible sólo en portugués.
      OK