Cifra Club

Sale Of The Century

The Seahorses

Cifra: Principal (violão e guitarra)
Selo Cifra Club: esta cifra foi revisada para atender aos critérios oficiais da nossa Equipe de Qualidade.
tom: Cm
E|-----11----------------11---13----15-----11-----------------------------------|
B|----------13-----13---------------------------13------------------------------|
G|--------------------------------------------------------------------8---10----|
D|--------------------------------------------------------8-----10--------------|
A|------------------------------------------------------------------------------|
E|------------------------------------------------------------------------------|

E|-----------------------------------------------------------------------------|
B|-----------------------------------------8--------8--------------------------|
G|-11----10----8---------------------------8--------8--------------------------|
D|------------------10----------------8h10---10-------10--10---8h10------------|
A|-----------------------------------------------------------------------------|
E|-----------------------------------------------------------------------------|

E|--11s13---11---13b--11-------------------------------------------8-------------|
B|--------------------------------------------------8h9p8------------8-----------|
G|---------------------------------------------------------8-----------8---------|
D|---------------------------------------1-------------------10-----------10-----|
A|--------------------------------1h3-----3--------------------------------------|
E|---------------------------1h3-------------------------------------------------|

E|--10--8--10b11--10----8--------8----6--6--6--6----------------------------------|
B|-------------------------11---------8--8--8--8-----------------4----------------|
G|------------------------------------------------------------------5---3---5-----|
D|--------------------------------------------------5--4--3--1--------------------|
A|--------------------------------------------------------------------------------|
E|--------------------------------------------------------------------------------|

E|-----------------------------------------------------------------------------|
B|-8--8--8--8--8---------7h8p7-------------------------------------------------|
G|-9--9--9--9--9------------------7--------------------------------------------|
D|-----------------7---9-------9-----------------------------------------------|
A|-----------------------------------------------------------------------------|
E|-----------------------------------------------------------------------------|



************************************

| h  Hammer-on
| b  Bend
| p  Pull-off
| s  Slide
Outros vídeos desta música
    1 exibições
      • ½ Tom
      • Am
      • Bbm
      • Bm
      • Cm
      • C#m
      • Dm
      • Ebm
      • Em
      • Fm
      • F#m
      • Gm
      • G#m
    • Adicionar à lista

    Afinação da cifra

    Afinador online

      0 comentários

      Ver todos os comentários

      Entre para o Cifra Club PRO

      Tenha acesso a benefícios exclusivos no App e no Site

      • Chega de anúncios

      • Badges exclusivas

      • Mais recursos no app do Afinador

      • Atendimento Prioritário

      • Aumente seu limite de lista

      • Ajude a produzir mais conteúdo

      Cifra Club Pro

      Aproveite o Cifra Club com benefícios exclusivos e sem anúncios
      Cifra Club Pro
      Aproveite o Cifra Club com benefícios exclusivos e sem anúncios
      Ops (: Contenido disponible sólo en portugués.
      OK