Cifra Club

Aprenda

Caring is Creepy

The Shins

Tab de baixo: Versão 2
Riff 1

G ||-7-9-11-------------|-7-9-11-------||
D ||---------7--9-5--7--|--------7--9-5||
A ||-------------------7|--------------||
E ||--------------------|--------------||



Riff 2

G ||-----------------------------------------------------------------------------------------------||
D ||---------------------------------------7-7-7-5-5-4----------7-9---------------------------7-7-5||
A ||-7-7-7-5-5-5--7-7-7-5-5-5--7-7-7-5-5-5--------------7-7-7-5------7-7-7-5-5-5--7-7-7-5-5-5------||
E ||-----------------------------------------------------------------------------------------------||



Riff 3
() - ONLY ON 4TH TIME
G ||--------||
D ||-4-5-(4)||
A ||--------||
E ||--------||



Riff 4

G ||--------------||
D ||---7-5-4-2-4-5||
A ||--------------||
E ||-7------------||



Riff 5

G ||---------------||
D ||-4--5-5-5-4-2-0||
A ||---------------||
E ||---------------||


REST ABOUT 15 SECONDS
RIFF 1 x1
RIFF 2 x1
Riff 3 x4
Riff 1 x2
Riff 2 x1
Riff 3 x4
Riff 4 x2
Riff 5 x1
Riff 1 x2
Riff 2 x1 (this time change the part with the 7-9 to 5-5 like the other parts)
Riff 3 x4
Riff 4 x2
Composição de James Mercer / The Shins
15 exibições

0 comentários

Ver todos os comentários

Conseguiu tocar?

0 Tocaram 0 Ainda não

Grave um vídeo tocando Caring is Creepy e nos envie!

00:00 / 00:00
Outros vídeos desta música
Repetir Qualidade Automático
Outros vídeos desta música
00:00 / 00:00
Automático

Cifra Club Pro

Aproveite o Cifra Club com benefícios exclusivos e sem anúncios
Cifra Club Pro
Aproveite o Cifra Club com benefícios exclusivos e sem anúncios
OK