Cifra Club

A Gun For Christmas

The Vandals

Cifra: Principal (violão e guitarra)
Selo Cifra Club: esta cifra foi revisada para atender aos critérios oficiais da nossa Equipe de Qualidade.
tom: G
Intro:
E|-----------------------------|---------------------------------------------|
B|-----------------------------|---------------------------------------------|
G|-----------------------------|---------------------------------------------|
D|-----------------------------|-12-12-11-10-9-8-7-7-12-12-11-11-11-11-11--11|
A|-12-11-10-9-8--12--11--14--12|-10-10-9--8--7-6-5-5-10-10-9--9--9--9--9---9-|
E|-10-9--8--7-6--10--9---12--10|---------------------------------------------|

E|-------------------------------------|---------------------------------------|
B|-------------------------------------|---------------------------------------|
G|-------------------------------------|---------------------------------------|
D|-11-10-9-8-11-10-9-8-11-10-9-8-------|-------------12-12-12-12-11-11-11-11-11|
A|-9--8--7-6-9--8--7-6-9--8--7-6-9-9-10|-12-12-12-12-10-10-10-10-9--9--9--9--9-|
E|-------------------------------7-7-8-|-10-10-10-10---------------------------|

E|--------------------------------------------|--------------------------------------------|
B|--------------------------------------------|--------------------------------------------|
G|--------------------------------------------|--------------------------------------------|
D|--------------------------------------------|-------------12-12-12-12-11-11-11-11-11-----|
A|-4-4-5-5-5-5-4-4-5-5-5-5-4-4-5-5-5-5-4-4-4-4|-12-12-12-12-10-10-10-10-9--9--9--9--9---12~|
E|-2-2-3-3-3-3-2-2-3-3-3-3-2-2-3-3-3-3-2-2-2-2|-10-10-10-10-----------------------------10~|

E|------------------------------|------------------------------|
B|-----7-----------8-7----------|-----7-----------8-7----------|
G|-7-6---9-7-6---------9-7-6~-9~|-7-6---9-7-6---------9-7-6~-9~|
D|-------------9-7--------------|-------------9-7--------------|
A|------------------------------|------------------------------|
E|------------------------------|------------------------------|

Verso 1:
E|------------------------------------|
B|------------------------------------|
G|------------------------------------|
D|------------------------------------|
A|-12-12-12-12-12-12-12-12-pick-slide-|
E|-10-10-10-10-10-10-10-10------------|

E|----------------------------------|
B|----------------------------------|
G|----------------------------------|
D|-7-7-7-7--12-12-11-11--5-5-5-5--9-| (2x)
A|-5-5-5-5--10-10-9--9---3-3-3-3--7-|
E|----------------------------------|

E|----------------------------------------|---------------------------------|
B|----------------------------------------|---------------------------------|
G|----------------------------------------|---------------------------------|
D|-7-7-7-7--12-12-11-11--5-5-5-5--9-9-9-9-|---------9-9-9-9-----------------|
A|-5-5-5-5--10-10-9--9---3-3-3-3--7-7-7-7-|-9-9-9-9-7-7-7-7-7-7-7-7-7-7-7-7-|
E|----------------------------------------|-7-7-7-7---------5-5-5-5-5-5-5-5-|

Riff 1:
E|---------------------------|-------------------------------------------|
B|-----------------8-7-------|-----------------8-7-----------------------|
G|-7-6-9-7-6-----------9-7-9~|-7-6-9-7-6-----------9-7-9~-11~--12~--14~--|
D|-----------9-7-5-----------|-----------9-7-5---------------------------|
A|---------------------------|-------------------------------------------|
E|---------------------------|-------------------------------------------|

Passagem:
E|--------------|
B|--------------|
G|--------------|
D|--------------| 
A|-777777777777-|
E|-555555555555-|

Verso 2:
E|----------------------------------|
B|----------------------------------|
G|----------------------------------|
D|-7-7-7-7--12-12-11-11--5-5-5-5--9-|
A|-5-5-5-5--10-10-9--9---3-3-3-3--7-|
E|----------------------------------|

E|----------------------------------------|
B|----------------------------------------|
G|----------------------------------------|
D|-7-7-7-7--12-12-11-11--5-5-5-5--9-9-9-9-|   (3x)
A|-5-5-5-5--10-10-9--9---3-3-3-3--7-7-7-7-|
E|----------------------------------------|

E|---------------------------------|
B|---------------------------------|
G|---------------------------------|
D|---------9-9-9-9-----------------|
A|-9-9-9-9-7-7-7-7-7-7-7-7-7-7-7-7-|
E|-7-7-7-7---------5-5-5-5-5-5-5-5-|

Passagem 2:
E|----------------------------------|
B|-10-10-11-10-10-11-10-10-10-11-10-|
G|----------------------------------|
D|-7--7--8--7--7--8--7--7--7--8--7--|
A|----------------------------------|
E|----------------------------------|

Riff 2:
E|---------------------------|-------------------------------------------|
B|-----------------8-7-------|-----------------8-7-----------------------|
G|-7-6-9-7-6-----------9-7-9~|-7-6-9-7-6-----------9-7-9~-11~--12~--14~--|
D|-----------9-7-5-----------|-----------9-7-5---------------------------|
A|---------------------------|-------------------------------------------|
E|---------------------------|-------------------------------------------|

Solo:
E|-10b-9-10b-11--10-10-9----10b-9-10b-11------|
B|--------------------------------------------|
G|-----------------------7---------------7----|
D|-----------------------------------------6b-|
A|--------------------------------------------|
E|--------------------------------------------|

Passagem 3:
E|---------------------------|
B|---------------------------|
G|---------------------------|
D|------------------7-7--9-9-|
A|-7-7-7-7-7-7-7-7--5-5--7-7-|
E|-5-5-5-5-5-5-5-5-----------|
  [----Rapido----]

Verso 3:
E|---------------------------------------------|
B|---------------------------------------------|
G|---------------------------------------------|
D|--9-9-9-9--14-14-13-13--7-7-7-7--11-11-11-11-|   (2x)
A|--7-7-7-7--12-12-11-11--5-5-5-5--9--9--9--9--|
E|---------------------------------------------|

E|------------------------------------|-----------------------------------------|
B|------------------------------------|-----------------------------------------|
G|------------------------------------|-----------------------------------------|
D|--9-9-9-9--14-14-13-13--7-7-7-7--11-|-------------11-11-11-11-----------------|
A|--7-7-7-7--12-12-11-11--5-5-5-5--9--|-11-11-11-11-9--9--9--9--9-9-9-9-9-9-9-9-|
E|------------------------------------|-9--9--9--9--------------7-7-7-7-7-7-7-7-|

Riff 3:
E|--------------------------------|---------------------------------------------|
B|-------------------10-9---------|-------------------10-9----------------------|
G|-9-8-11-9-8-------------11-9-11~|-9-8-11-9-8-------------11-9-11~-13~-14~-16~-|
D|------------11-9-7--------------|------------11-9-7---------------------------|
A|--------------------------------|---------------------------------------------|
E|--------------------------------|---------------------------------------------|

Riff 4:
E|----------19-17----|
B|-17----17-------19-|
G|----16-------------|
D|-------------------|
A|-------------------|
E|-------------------|

Final:
E|-----------------------------------------------------------|
B|-----------------------------------------------------------|
G|-----------------------------------------------------------|
D|-9-9-9-9-9-9-9-7-7-7-7-9-9-9-9-----------------------------|
A|-7-7-7-7-7-7-7-5-5-5-5-7-7-7-7-6-6-6-6-6-6-6-4-4-4-4-4-4-4-|
E|-------------------------------4-4-4-4-4-4-4-2-2-2-2-2-2-2-|

E|----------------------------------------------|
B|----------------------------------------------|
G|----------------------------------------------|
D|-------------------------------------------9~-|
A|-7-7-7-7-7-7-7-9-9-9--9-9-9--9-9-9--9-9-9--7~-|
E|-5-5-5-5-5-5-5-7-7-7--7-7-7--7-7-7--7-7-7-----|
Outros vídeos desta música
    97 exibições
      • ½ Tom
      • A
      • Bb
      • B
      • C
      • Db
      • D
      • Eb
      • E
      • F
      • F#
      • G
      • Ab
    • Adicionar à lista

    Afinação da cifra

    Afinador online

      0 comentários

      Ver todos os comentários

      Entre para o Cifra Club PRO

      Tenha acesso a benefícios exclusivos no App e no Site

      • Chega de anúncios

      • Badges exclusivas

      • Mais recursos no app do Afinador

      • Atendimento Prioritário

      • Aumente seu limite de lista

      • Ajude a produzir mais conteúdo

      Cifra Club Pro

      Aproveite o Cifra Club com benefícios exclusivos e sem anúncios
      Cifra Club Pro
      Aproveite o Cifra Club com benefícios exclusivos e sem anúncios
      Ops (: Contenido disponible sólo en portugués.
      OK