Cifra Club

Ajetaan Me Tandemilla

Tyrävyö

Cifra: Principal (violão e guitarra)
Selo Cifra Club: esta cifra foi revisada para atender aos critérios oficiais da nossa Equipe de Qualidade.
tom: D
E|---------------------------------------------------------------------| I
B|---------------------------------------------------------------------| I
G|-------------------------------7-------9-7---------7-9---------------| I
D|-9-7-----------------9-7-9-7-9---9-7-------10-9-10-----10--9-9-12/16-| I
A|----10-9-7-9-10-10~-----------------10-------------------------------| I
E|---------------------------------------------------------------------| I

E5 
 Minä tulin viidakosta
G5
 ojasta ja allikosta
C5
 matalasta aitiosta
H5
 katsoin kuinka suunta hain

E5
 vaeltelin valtateitä
G5 
 salkku täynnä seppeleitä
C5
 älä sylistäs mua heitä
H5
 nyt kun seison jaloillain

E5           A5
 Ajetaan me tandemilla
D5             G5
 melutaan ja syljeskellään
E5          A5
 kotikylän tanhuvilla
D5           G5              H5    A5   H5
 kysellään missä häät pidetään

E5
 olen käynyt Tiibetissä
G5
 Moskovassa, Rööperissä
C5
 mietiskelin aina missä
H5
 syy on etten jäädä voi

E5
 pipo päässä pakkasella
G5
 kotiin kelpaa hoiperrella
C5
 kesäöitä kuulostella
H5
 perkele kun puissa soi

E5           A5
 Ajetaan me tandemilla
D5             G5
 melutaan ja syljeskellään
E5           A5
 kotikylän tanhuvilla
D5           G5             H5   A5  H5
 kysellään missä häät pidetään

F#5          H5
 Ajetaan me tandemilla
E5             A5
 melutaan ja syljeskellään
F#5         H5
 kotikylän tanhuvilla
E5           A5          C#5       H5   C#5
 kysellään missä häät pidetään

  soolo:
E|-------------------------------------------------------------------|
B|-------------------------------------------------------------------|
G|-------------------------------------------------------------------|
D|--11-12-12-12-11-9--12-11-11-9-11---11-12-12-12-11-9--12-11-11-11-9|
A|-9-----------------7---------------9-----------------7-------------|
E|-------------------------------------------------------------------|

E|---------------------| I
B|---------------------| I
G|---------------------| I
D|--7-11~-9~-11-12-11~-| I
A|---------------------| I
E|---------------------| I
  

E5
 olen myynyt nostureita
G5
 kaupitellut kaapeleita
C5
 matkustellut mantereita
H5
 kunnes mieleen kirkastui 

E5
 kylähullu maailmalta
G5
 kotiin syöksyin palmun alta?????
C5
 yhä näytin kauneimmalta
H5
 jälleen, tälleen rakastuin

E5           A5
 Ajetaan me tandemilla
D5          G5
 melutaan ja syljeskellään
E5          A5
 kotikylän tanhuvilla
D5           G5            H5    A5   H5
 kysellään missä häät pidetään

F#5          H5
 Ajetaan me tandemilla
E5            A5
 melutaan ja syljeskellään
F#5         H5 
 kotikylän tanhuvilla
E5           A5         C#5    H5  C#5
 kysellään missä häät pidetään

G#5          C#5
 Ajetaan me tandemilla
F#5            H5
 melutaan ja syljeskellään
G#5          C#5
 kotikylän tanhuvilla
F#5        H5            D#5   C#5   D#5 
 kysellään missä häät pidetään
Outros vídeos desta música
    5 exibições
      • ½ Tom
      • A
      • Bb
      • B
      • C
      • Db
      • D
      • Eb
      • E
      • F
      • F#
      • G
      • Ab
    • Adicionar à lista

    Afinação da cifra

    Afinador online

      0 comentários

      Ver todos os comentários

      Entre para o Cifra Club PRO

      Tenha acesso a benefícios exclusivos no App e no Site

      • Chega de anúncios

      • Badges exclusivas

      • Mais recursos no app do Afinador

      • Atendimento Prioritário

      • Aumente seu limite de lista

      • Ajude a produzir mais conteúdo

      Cifra Club Pro

      Aproveite o Cifra Club com benefícios exclusivos e sem anúncios
      Cifra Club Pro
      Aproveite o Cifra Club com benefícios exclusivos e sem anúncios
      Ops (: Contenido disponible sólo en portugués.
      OK