Notificações Amigos pendentes

      Zeke

      302 Cubic Inch V8 Powered Blues

      250 exibições
      Tom: A
      From the album 'Supersound Racing'
      
      Tuning: Eb Ab Db Gb Bb eb (half step down)
      
      Not 100% sure this is correct, but it sounds good.
      
      INTRO
      
      e /|----------------------------------------|
      B /|----------------------------------------|
      G /|--2--3--4--5--6-7-8-9-10-11-12-13-(14)--|
      D /|--2--3--4--5--6-7-8-9-10-11-12-13-(14)--|
      A /|--0--1--2--3--4-5-6-7-8--9--10-11-(12)--|
      E /|----------------------------------------|
      
      
      
      You better not start that car!
      You better not start that car!
      You better not...
      
      E
      
      You better not start that car!
      You better not start that car!
      You better not...
      
      G           A      E
      
      I'm a motherfucker when i get behind the wheel,
      
      G           A      E
      
      I'm a loser, i'm an asshole and i don't know how to feel. YEAH!
      
      
      
      e /|---------3------------|
      B /|---------0------------|
      G /|---------0---------1--|
      D /|--0-1-2--0---------2--|  2x
      A /|---------2--0-1-2--2--|
      E /|---------3---------0--|
      
      
      Then this
      
      
      e /|--------------------------------------|
      B /|--------------------------------------|
      G /|--2--3--4--5--6-7-8-9-10-11-12-13-14--|
      D /|--2--3--4--5--6-7-8-9-10-11-12-13-14--|
      A /|--0--1--2--3--4-5-6-7-8--9--10-11-12--|
      E /|--------------------------------------|
      
      
      2nd guitarist just play an E
      
      
      e /|----------------------|
      B /|--(10)-12b-10---10----|
      G /|-------------12---12--|
      D /|----------------------|  8x
      A /|----------------------|
      E /|----------------------|
      
      
      Then back to 'You better not start that car!'...
      
      After that play that blues riff (E and A) while 2nd guitarist
      play the solo part. Didn't tab that one out, but just improvise.
      
      Then 1st guitarist play this:
      
      
      e /|-------------------------------------|
      B /|-------------------------------------|
      G /|--9--7--6--6--4-----1----------------|
      D /|--9--7--6--6--4--5--2----------------|
      A /|--7--5--4--3--2--5--2----------------|
      E /|-----------------3--0----------------|
      
      
      While 2nd guitarist play this:
      
      
      e /|-------------------------------------|
      B /|-------------------------------------|
      G /|------------------------1------------|
      D /|------6-6-7-7-8-8-9--5--2------------|
      A /|--7-7----------------5--2------------|
      E /|---------------------3--0------------|
      
      
      /Martin '2004
        Composição: Blind Marky Felchtone

        Comentários 0

        140 .
        140 cancelar

        conseguiu tocar?

        covers

        Grave um vídeo tocando 302 Cubic Inch V8 Powered Blues e mande pra gente!

        Ex.: http://www.youtube.com/watch?v=0IvSvIwGdwk
        ver covers de outras músicas »
        0:00 / 0:00

        Capítulos

          1 versão de violão dificuldade exibições contribuição e correção
          1 versão de guitarra dificuldade exibições contribuição e correção
          1 versão de cavaco dificuldade exibições contribuição e correção
          1 versão de teclado dificuldade exibições contribuição e correção
          play/pausefechar subir/descer velocidade
          6ª corda E5ª corda A4ª corda D3ª corda G2ª corda B1ª corda E
            acordes
            publicidade
            fechar
            ok