Ain't No Fun

AC/DC

 AC/DC
Tom: G
		
		guitar 1
	  D                  G
	                    Rhythm fig 1                      End Rhythm fig 1
	|-----------|------|------------------|-----------------|
	|-3-------3-|------|------------------|-----------------|
	|-2-------2-|------|------0-----0---0-|---0-0----0---0-.|
	|-0---3h4-0-|------|---0--------------|----------------.|
	|-----------|------|--------0-----2---|-3-----2---------|
	|-----------|------|-3----------------|------------3----|
	|
	| guitar 2
	|                   Rhythm fig 1a                     End Rhythm fig 1a
	|-----------|------|------------------|-----------------|
	|-3-------3-|------|------------------|-----------------|
	|-2-------2-|------|------------------|----------------.|
	|-0---3-4-0-|------|------------------|----------------.|
	|-----------|------|-5------0-----2---|-3-----2---------|
	|-----------|------|-3----------------|------------3----|

    guitar 1
	  D
	                                     Rhythm fig 2                    end Rhythm fig 2
	|-----------------|-----------------|-----------------|-----------------|
	|-----------------|-----------------|-----------------|-----------------|
	|-2-2-4---2---4-2-|-2-2-4---2---4-2-|-2-2-4---2---4-2-|-2-2-4---2---4-2-|
	|-0-0-0---0---0-0-|-0-0-0---0---0-0-|-0-0-0---0---0-0-|-0-0-0---0---0-0-|
	|-----------------|-----------------|-----------------|-----------------|
	|-----------------|-----------------|-----------------|-----------------|
	|
	| guitar 2
	|                                    Rhythm fig 2a                   end Rhythm fig 2a
	|-----------------|-----------------|-----------------|-----------------|
	|-3---------------|---------------2-|---3-----3-------|---3-----3-------|
	|-2---------------|---------------0-|---2-----2-----2-|---2-----2-----2-|
	|-0---------------|-----------------|-----0-0---0-0-0-|-----0-0---0-0-0-|
	|-----------------|-----------------|-----------------|-----------------|
	|-----------------|-----------------|-----------------|-----------------|

	Rhythm fig 2   -   29 1/2 times

	Chorus (Start)

    guitar 1
	  D
	|-3---------------|-----------------|------------------|----------------|
	|-3---------------|-----------------|------------------|----------------|
	|-0---------------|-----------------|------0-----0---0-|---0-0----0---0-|
	|-0---------------|-----------------|---0--------------|----------------|
	|-----------------|-----------------|--------0-----2---|-3-----2--------|
	|-3---------------|-----------------|-3----------------|------------3---|
	|
	| guitar 2
	|
	|-3---------------|-----------------|------------------|----------------|
	|-3---------------|-----------------|------------------|----------------|
	|-0---------------|-----------------|------------------|----------------|
	|-0---------------|-----------------|------------------|----------------|
	|-----------------|-----------------|-5------0-----2---|-3-----2--------|
	|-3---------------|-----------------|-3----------------|------------3---|

	Rhythm fig 2 and 2a -  2x

	Chorus (end)

	Play the chorus 3 more times (4 total)

    guitar 1
	  D
	|-------------------|-------------------|-3-----------3-3-|-3---------------|
	|-------------------|-------------------|-3-----------3-3-|-0---------------|
	|---2-4---2-----2---|---2-4---2-----2---|-0-----------0-0-|-0---------------|
	|---0-0---0-----0---|---0-0---0-----0---|-0-----------0-0-|-0---------------|
	|-------------------|-------------------|-----------------|-----------------|
	|-------------------|-------------------|-3-----------3-3-|-3---------------|
	|
	| guitar 2
	|
	|-------------------|-------------------|-3-----------3-3-|-3---------------|
	|---3-----3-----3---|---3-----3-----3---|-3-----------3-3-|-3---------------|
	|---2-----2-----2---|---2-----2-----2---|-0-----------0-0-|-0---------------|
	|-----0-0-------0---|-----0-0-------0---|-0-----------0-0-|-0---------------|
	|-------------------|-------------------|-----------------|-----------------|
	|-----------------0-|-----------------0-|-3-----------3-3-|-3---------------|
18.782 exibições

Comentários 0

Composição: Angus Young/ Malcolm Young/ Bon Scott
Esse não é o compositor? Avise-nos.
Exibir acordes »
publicidade
fechar