Hard As A Rock

AC/DC

 AC/DC
Tom: E
		
Tom :B5
Intro: B5  E5  B5  E5

 Main Riff:

E |---2-4-5-4-2-0-2-4-2---4-0---4-2---|
B |---0-0-0-0-0-0-0-0-0---0-0---0-0---|
G |-----------------------------------|
D |-----------------------------------|
A |-----------------------------------|
E |-----------------------------------|


B5 Bm7   B5 (Alternate)
A rolling rock, electric shock
B5 Bm7   B5 (Alternate)
It gives a licking that doesn't stop
B5 Bm7   B5 (Alternate)
She line 'em up, push you round
B5 Bm7   B5 (Alternate)
Smoking rings going round and round

New Riff:

E |---5-4-2--2-4-5-4-2-4-2-----|
B |---0-0-0--0-0-0-0-0-0-0-----|   3x
G |----------------------------|
D |----------------------------|
A |----------------------------|
E |----------------------------|


B5 Bm7   B5 (Alternate)
Her hot potatoes
B5 Bm7   B5 (Alternate)
Will elevate you
B5 Bm7   B5 (Alternate)
Her bad behaviour
                              B5  A5  E5  B5
Will leave you standing proud
               B5  A5  E5  B5
Hard as a rock
Chorus:
(Main Riff)or B5 E5 B5 E5
Hard as a rock
(Main Riff)or B5 E5 B5 E5
Harder then a rock
(Main Riff)or B5 E5 B5 E5
Hard as a rock
                   B5 A5 E5 x2
Harder then a rock
B5  Bm7    B5 (Alternate)
The lightning rod, strike it hot
B5  Bm7    B5 (Alternate)
Going hit you like the Rushmore rock
B5  Bm7    B5 (Alternate)
No nicotine and no pipe dreams
B5  Bm7    B5 (Alternate)
So low and dirty it's darn right mean

New Riff:

E |---2-2-4-2-4-5-4-2-0-2-4-2---|
B |---0-0-0-0-0-0-0-0-0-0-0-0---|    3x
G |-----------------------------|
D |-----------------------------|
A |-----------------------------|
E |-----------------------------|


B5  Bm7    B5 (alternate)
Hell elevator, I'll see you later
B5  Bm7    B5
No I ain't gonna take it
                 B5 A5 E5
I'm bustin' out
                 B5 A5 E5
Hard as a rock
Chorus:
(Main Riff)or B5 E5 B5 E5
Hard as a rock
                    B5 E5 B5 E5
Harder then a rock
                   B5 E5 B5 E5
Hard as a rock
                   B5 A5 E5 (2x)
Harder then a rock

Comentários 4

  • Anderson Anderson: Postado em 26/09/2014 14:42

    Falta o solo :(

  • BR4Z1LL0VE BR4Z1LL0VE: Postado em 10/05/2013 17:53

    Riff Facil e muito boa... pra mim que sou iniciante foi mt bom tocar esta musica :D

  • gustavohsz gustavohsz: Postado em 26/11/2012 11:22

    legal : - )

  • patrickogole patrickogole: Postado em 30/07/2012 15:08

    Riff legal e facil.

Composição: Angus Young / Johan Fransson / Malcolm Young / Nelly Furtado
Esse não é o compositor? Avise-nos.
Contribuição: Cristina Correções: pduarte e mais 1 »
Exibir acordes »
publicidade
fechar