Rebirth

Angra

 Angra
Tom: C
		

         Am          D/F# Am7/G      Em     F          G     Am
E|--------0-----------------------------------------------------0--------|
B|------1---3--------------1-0--------------------------------1-----1----|
G|----2------------2-----0--------------------2-0-----0------2-----2---2-|   (2x)
D|---------------0-----0-----------2-------3--------0------2-------------|
A|--0----------------------------2------3----------------0---------------|
E|-------------2-----3---------0------1-----------3----------------------|


          Dm                                C              G/B
E|-------1-----0----------0------1---0-----------------3-----|
B|-----3-----3-----3--------3--------------3---1------3------|
G|---2-----2-----2---2--------2----2---0----0---0---0--------|
D|-0---------0---------0-----------------2---2---------------|
A|-----------------------------------3---3--------2----------|
E|-----------------------------------------------------------|


2ª parte 2x:
  (início da voz)

                A7/9                 Dm7
E|-------3-0---3------3-0---3------------5-----------------5---------|
B|-----1-----1--1----1----1---1-------6-------6----------6------6----|
G|---4--------------4---------------5-------5---5------5------5---5--|
D|--------------------------------7------------------7---------------|
A|-0--------------0-------------5------------------------------------|
E|---------------------------------------8---------7-------5---------|


         G9
E|---------3----------------3-----------------0----------------0-------|
B|-------0---0---0--------0---0---0---------3------3---------3-----3---|
G|-----2-------2--------2-------2---------0------0---0-----1-----1---1-|
D|---0----------------0-----------------2----------------2-------------|
A|------------------------------------3-------2----------------2-------|
E|-3----------------3----------------------------------4---------------|



E|-------3-0---3---------3-0----3-----------0------------0-------------1-0-|
B|-----1-----1---1-----1------1---1-------7------7------7-----7------1-----|
G|---4----------------4-----------------5------5---5---5----5---5---2------|
D|------------------------------------7---------------7--------------------|
A|-0----------------0---------------5----------------5---------------------|
E|------------------------------------------8------------5--------1--------|



E|---1---------1-0----1-----------0-----------------0---------------0-------|
B|-1---1-----1------1---1-----1-0---1---1------(10)---1---1----(10)---1---1-|
G|---------2----------------2---------4------2----------4-----2---------4---|
D|--------------------------------------------------------------------------|
A|------------------------0---------------0-----------------0---------------|
E|-------1-------3----------------------------------------------------------|


Refrão 2x:

E|--------------------------------------------------------|
B|-----5--5--3-------6--6--5-------5-5-3-------0-0-1------|
G|-----5--5--4-------7--7--5-------5-5-4-------1-1-2------|
D|---7-------5-----5-8--8--7-----7-----5-----0------------|
A|-0-------------0-------------0-----------0--------------|
E|--------------------------------------------------------|


   (ver introdução "início da voz")
Am                      Dm
Cooling breeze from a summer day
G                        C G/B
Hearing echoes from your heart
Am                    D
Learning how to recompose the words
F             Am
Let time just fly

Joyfull sea-gulls roaming on the shore
Not a single note will sound
Raise my head after i dry my face
Let time just fly
Am    Dm           Am
Recalling, retreating
       Dm          Am
Returning, retrieving
           Dm        Am
A small talk your missing

(fim da introdução)
            E             F    G
More clever but older now

(início instrumental)

 A           A
A leader, a learner
 A/G      E
A lawful beginer
 A           A
A lodger of lunacy
 D        G
So lucid in a jungle
 C         E
A helper, a sinner
 F             G          A
A scarecroow's agonyzing smile
 F             F#
Oh! minutes go round and round
          C#
Inside my head
 D                D#
Oh! my chest will now explode
        B
Falling into pieces          2x
 E                 A       (C# B)     E F  E F
Rain breaks on the ground-blood!

C#  B C#   C# B C#    E F  E F
One minute forever

C# B  C#  C# B  C#    E F  E F
A  sinner regreting

 A               G     F   G A  G
My vulgar misery ends

F              G    Am            G
Ride the winds of a brand new day
F                  G   Am     G
High where mountain's stand
F             Em   Dm
Found my hope and pride again
                          (2x)
  C         E    (A G/F# G E F G A)
Rebirth of a man

Solo: B G F# E G A D B) (3x)
      B G F# E  G F# G
      A G/F# G E F G A) (2x)

       D C F E D C G  A
E|------------------------|
B|-10r-----10b--------10--|
G|------------------------|
D|------------------------|
A|------------------------|
E|------------------------|



E|-----------12-14-15-14-12----------17b-------|------19-17-19--------17b-|
B|--12-14-15----------------15-14-12-----------|--------------------------|
G|---------------------------------------------|--------------------------|
D|---------------------------------------------|--------------------------|
A|---------------------------------------------|--------------------------|
E|---------------------------------------------|--------------------------|



E|--------14h15h14-------14-------------|------------------------------|
B|-----------------17h15----17h14-15h14-|--------14--------------------|
G|--------------------------------------|--16h14----14-16----------16--|
D|--------------------------------------|------------------------------|
A|--------------------------------------|------------------------------|
E|--------------------------------------|------------------------------|



E|--19----17/19/17----------------------------------|
B|--------------------19----17/19/17----------------|
G|-----16----------16----16----------16-19-16-18/19/|
D|--------------------------------------------------|
A|--------------------------------------------------|
E|--------------------------------------------------|



E|--------------------------------|
B|--------------------------------|
G|--18/18-18/19/18r--18-16--------|
D|--------------------------------|
A|--------------------------------|
E|--------------------------------|



E|--------------------------------------------------|
B|--------------------------------------------------|
G|--------------------------------11h12h11----------|
D|--------12-16-------12-16-12-16----------16h12h16-|
A|--12-14-------12-14-------------------------------|
E|--------------------------------------------------|



E|--------------------------------------------------|
B|--------------12-------14h10----15h12-14h12-------|
G|--12h14h12-------14h12-------12-------------14-13-|
D|-----------16-------------------------------------|
A|--------------------------------------------------|
E|--------------------------------------------------|



E|-------------------------------------12-11-10-9-|--12b-----12h10---------14-14-|
B|--15-14-13-12-------------12-11-10-8------------|----------------12------------|
G|--------------14-13-12-11-----------------------|------------------------------|
D|------------------------------------------------|------------------------------|
A|------------------------------------------------|------------------------------|
E|------------------------------------------------|------------------------------|



E|--14/10-10-10-10/12-12-12-12/7-7-7-7/10-10--|--9-----10-9-7-9------0-10-|
B|--------------------------------------------|---------------------------|
G|--------------------------------------------|---------------------------|
D|--------------------------------------------|---------------------------|
A|--------------------------------------------|---------------------------|
E|--------------------------------------------|---------------------------|



E|--14-15-14-10-14h10-------------------------------|
B|--------------------14-15-14-10-14h10-------------|
G|--------------------------------------14-16-14-11-|
D|--------------------------------------------------|
A|--------------------------------------------------|
E|--------------------------------------------------|



E|----------------------------------------------|
B|----------------------------------------------|
G|--12------11-12-12-11-------------------------|
D|----------------------14-12-11----------------|
A|-------------------------------14-12-10-14/---|
E|----------------------------------------------|



E|--------------------------17--19--21--22--21--22--|
B|----------------------17--------------------------|
G|----------16--18--19------------------------------|
D|------16------------------------------------------|
A|--17----------------------------------------------|
E|--------------------------------------------------|



E|-------------------|-------17---19b20-19b--17-17-19-19-15-15~-|
B|--15b-15~-15b------|--15/17--17-------------------------------|
G|--------------14~~-|------------------------------------------|
D|-------------------|------------------------------------------|
A|-------------------|------------------------------------------|
E|-------------------|------------------------------------------|



E|--20--17h19p17----17---------|
B|---------------20----20b-20b-|
G|-----------------------------|
D|-----------------------------|
A|-----------------------------|
E|-----------------------------|



E|-10-12-13-12p10-----------------------------------------------------------------|
B|----------------13-12p10----10-13-12p10----10-----------------------------------|
G|-------------------------12-------------12----12-10-9-12-10p9----10p9-----------|
D|--------------------------------------------------------------12------12-10-----|
A|----------------------------------------------------------------------------9~~-|
E|--------------------------------------------------------------------------------|



E|------------------------------------|--------------------------------------|
B|------------------------------------|--13/15-15~---------------------------|
G|--7/12-12-10-10-9-9-7-7/9-9-5--5~~~-|------------15-14-12h14p12--9h10-10~~-|
D|------------------------------------|--------------------------------------|
A|------------------------------------|--------------------------------------|
E|------------------------------------|--------------------------------------|



E|--------------------------------|------------------------15----|
B|--------------------------------|---10-----12-----13-----18b20-|
G|-7h9p7-5-4-5p4------------------|---12b14--14b16--15b17--------|
D|---------------5----------------|------------------------------|
A|-----------------7-5h7-5-2-2~~~-|------------------------------|
E|--------------------------------|------------------------------|


 G      F              G    A              G
(and i) ride the winds of a brand new day
F                  G   A     G
High where mountain's stand
F             E   Dm
Found my hope and pride again
 C       Dm   E
Rebirth of a man        (intro)    time to fly...

(Versão 2)

          Am          D/F#  Am7/G      Em     F          G      Am
E|--------0-----------------------------------------------------0--------|
B|------1---3--------------1-0--------------------------------1-----1----|
G|----2------------2-----0-------------------2-0------------2-----2---2--|   (2x)
D|---------------0-----2------------2------3----------5---2--------------|
A|--0-----------------------------2------3----------5---0----------------|
E|-------------2-----3----------0------1----------3----------------------|


          Dm                                C              G/B
E|-------1-----0----------0------1---0-----------------2-----|
B|-----3-----3-----3--------3--------------3---1------2------|
G|---2-----2-----2---2--------2----2---0----0---0---0--------|
D|-0---------0---------0-----------------2---2---------------|
A|-----------------------------------3---3--------2----------|
E|-----------------------------------------------------------|


Am                      Dm
Cooling breeze from a summer day
G       G/B                 C G/B
Hearing echoes from your heart
Am                   D
Learning how to recompose the words
F             Am
Let time just fly

Am                        Dm
Joyfull sea-gulls roaming on the shore
G     G/B                   C G/B
Not a single note will sound
Am7                    D/F#
Raise my head after i dry my face
F             Am
Let time just fly

Am       Dm            Am
Recalling, retreating
         G
Returning, retreaving
Am         Dm          Am
A small talk your missing

(fim da introdução)
         E              F    G   A
More clever but older now

(início instrumental)

 A           A
A leader, a learner
G         E
A lawful beginer
 A           A
A lodger of lunacy
 Dm        G
So lucid in a jungle
 C         E
A helper, a sinner
 F             G          A
A scarecroow's agonyzing smile

F              G    A              G
Ride the winds of a brand new day
F                  G   A     G
High where mountain's stand
F             Em   Dm
Found my hope and pride again
C              E
Rebirth of a man     (introdução)

( Dm   G/B   C    G/B ) (2x)

 G      F              G    Am              G
(and i) ride the winds of a brand new day
F                  G   Am    G
High where mountain's stand
F             Em   Dm
Found my hope and pride again
 C          E
Rebirth of a man        (introdução)

E|--------0-----------------------------------------------------0--------|
B|------1---3--------------1-0--------------------------------1-----1----|
G|----2------------2-----0-------------------2-0------------2-----2---2--|
D|---------------0-----2------------2------3----------5---2--------------|
A|--0-----------------------------2------3----------5---0----------------|
E|-------------2-----3----------0------1----------3----------------------|

                                      time to fly...

E|--------0-------------------------------------------------------------12--|
B|------1---3--------------1-0------------------------------------------12--|
G|----2------------2-----0-------------------2-0--------4-----2--6--9---14--|
D|---------------0-----2------------2------3----------5--------7------------|
A|--0-----------------------------2------3----------5--------7--------------|
E|-------------2-----3----------0------1----------3--------5----------------|
Texto Colunas
Alterar tom ½ tom ½ tom
afinação acordes na letra esconder tabs mais »

Comentários 33

  • jvckennedy jvckennedy: Postado em 18/02/2014 13:40

    Tem video aula de outro site

  • ariel.z.campos ariel.z.campos: Postado em 28/12/2013 14:28

    como se faz um hammer on da casa 17 pra casa 15? (17h15)

  • junior.liberato.90 junior.liberato.90: Postado em 26/11/2013 13:36

    Video aula :)

  • Leonardo Leonardo: Postado em 12/09/2013 16:38

    video aula por favor, essa tab ta mt confusa!

  • hitmontin hitmontin: Postado em 29/08/2012 19:46

    video aula aew!

  • emerson4057 emerson4057: Postado em 03/08/2012 15:13

    video aula por favor

  • ericktheshadow ericktheshadow: Postado em 13/07/2012 11:48

    complicado a música,mas deu pra aprender com a aula do cifra,é só praticar(tô a quase 3 semanas vendo aquela video aula),ruim a aula não é.

  • otuosxd otuosxd: Postado em 23/06/2012 23:13

    tem q fazer aki,pq la no cifras é uma merda ¬¬
    VAAI CIFRA CLUB !

    • raphaelodalvo raphaelodalvo: Postado em 21/08/2012 14:28

      Ter um site com cifras disponíveis é um privilégio, e não direito.E essa musica tem até aula la no TVCifras. E vc quer aula aqui tmb? ¬¬

    • raphaelodalvo raphaelodalvo: Postado em 21/08/2012 14:30

      Quando eu era iniciante, procurava aula até em inglês, pq eu só queria aprender a musica, seja do jeito q for. Eu queria aprender de verdade

Exibindo 10 de 33 comentários Mostrar mais ver todos »
Composição: Bittencourt / Loureiro
Esse não é o compositor? Avise-nos.
Contribuição: WiseMaster Correções: Daniel , leleca e mais 10 »
  1. Domingo de Manhã - Marcos e Belutti Manteve-se 96.264 exibições
  2. Até Você Voltar - Henrique e Juliano Manteve-se 55.457 exibições
  3. Pra Você - Onze:20 Manteve-se 48.991 exibições
  4. Recaídas - Henrique e Juliano Manteve-se 41.756 exibições
  5. Logo Eu - Jorge e Mateus Manteve-se 40.010 exibições
  6. Evidências - Chitãozinho & Xororó Manteve-se 35.919 exibições
  7. Só Os Loucos Sabem - Charlie Brown Jr. Manteve-se 31.813 exibições
  8. Cuida Bem Dela - Henrique e Juliano Manteve-se 31.163 exibições
  9. Pais e Filhos - Legião Urbana Manteve-se 29.531 exibições
  10. Give Me Love - Ed Sheeran Manteve-se 29.506 exibições
  1. Jorge e Mateus- Manteve-se 251.571 exibições
  2. Legião Urbana- Manteve-se 211.240 exibições
  3. Henrique e Juliano- Manteve-se 192.369 exibições
  4. Charlie Brown Jr.- Manteve-se 151.943 exibições
  5. Bruno e Marrone- Manteve-se 133.779 exibições
  6. Fernandinho- Manteve-se 118.729 exibições
  7. Marcos e Belutti- Manteve-se 117.826 exibições
  8. Luan Santana- Manteve-se 111.298 exibições
  9. Thalles Roberto- Manteve-se 93.703 exibições
  10. Victor e Leo- Manteve-se 91.274 exibições
Exibir acordes »

Cifras e tabs

Fórum Cifra Club

Aprenda

Cifra Club News

Mais Serviços Cifra Club ID

Studio Sol

©1996 - 2014 Cifra Club · o primeiro, maior e mais acessado do Brasil · 337 mil músicas · 6.2 milhões pessoas cadastradas

publicidade
fechar