Inevitável

Bruno e Marrone

 Bruno e Marrone
Tom: C
		
(intro)  C G F C G Bb9 F G


E |------------------------------------------------------3-|
B |-6-6-6-6--5-5~---5-5-5-5--3-3~---3-3h5-3--1-1~--------3-|
G |-5-5-5-5--5-5~---5-5-5-5--4-4~---4-4-4-4--2-2~------4---|
D |-5-5-5-5--5-5~---5-5-5-5--5-5~---5-5-5-5--3-3~--3/5-----|
A |--------------------------------------------------------|
E |--------------------------------------------------------|

          C
É animal,
é tão voraz,
            F  F4  F
Essa paixão,
          C
é vendaval,
me tira a paz,
            F  F4  F
faz confusão..
             G
chega dá medo,
             F               C   Bb9 F   G
sabe o segredo do meu coração,
              C
é sempre assim ,
sem avisar,
             F
me surpreende,
              C
demais pra mim
G/B          Am
quando, sei lá
Am/G       F     F4  F
chega e me rende
      G            F    G        C
me devora, depois some, a alma chora...

C                       Em
é inevitável te amar assim,
                                   F
quantas vezes digo não mas lá no fim
 G            C
sempre me entrego
                           Em
é inevitável o poder da paixão,
                                  F     G
se tento esquecer lá dentro o coração
      C           G           C
fica surdo, fica mudo, fica cego


 (solo) Ab F C Ab F C F G
E |----------------------------------------------------------------------|
B |----------------------------------------------------------------------|
G |--3/5-3-1-----1----------10/9-5/3-3/5-7/9-9/5-3/5-3-1-----1-----------|
D |----------1-3---3-1-3/10------------------------------1-3---3-1-3/10--|
A |----------------------------------------------------------------------|
E |----------------------------------------------------------------------|



E |----------------------------------------------------------------------|
B |-------------------------------15/13--------------13/11---------------|
G |---------------------------/16-------/16-12~--/14-------/14-10--------|
D |--10/9-5/3-3/5-7/9-9/5-5/3--------------------------------------------|
A |----------------------------------------------------------------------|
E |----------------------------------------------------------------------|



  C
"É sempre assim ,   E|-8----8----8------|
sem avisar,         B|------------------|*nesse trecho entre aspas

             F      G|---10---10---10---|faz esse arranjinho:
me surpreende,"
              C
demais pra mim
G/B          Am
quando, sei lá
C/G          F  Bb9  F
chega e me rende
      G            F    G        C
me devora, depois some, a alma chora...

C                       Em
é inevitável te amar assim,
                                    F
quantas vezes digo não mas lá no fim
G            C
sempre me entrego
                           Em
é inevitável o poder da paixão,
                                   F     G
se tento esquecer lá dentro o coração
      C           G           C
fica surdo, fica mudo, fica cego

C                       Em
é inevitável te amar assim,
                                    F
quantas vezes digo não mas lá no fim
G            C
sempre me entrego
                           Em
é inevitável o poder da paixão,
                                   F     Fm
se tento esquecer lá dentro o coração
      C           G           F      Bb B C
fica surdo, fica mudo, fica cego
407.674 exibições

Comentários 1

  • florzinha456 florzinha456: Postado em 31/05/2011 18:29

    essa musica mexe muito comigoo

Composição: Zé Henrique
Esse não é o compositor? Avise-nos.
Contribuição: vitiNN Guilardi Correções: brunobviana , supergato e mais 4 »
Exibir acordes »
publicidade
fechar