Bruno e Marrone

Seu Amor Ainda É Tudo

370.175 exibições
Tom: D
(intro)


         Dm          Gm           Dm       A      Dm      A
E|----------------------------------------------------------|
B|-------6-6-5----------6-6-5-------------------------------|
G|-------------7-5----------7-5------5----------------------|
D|--6/7----------7-7~8-----------7-7----7-5-7---------------|
A|--------------------------------------------8-7-5-5/7-5~4-|
E|----------------------------------------------------------|


Dm	                          Gm    Gm7 Gm
Muito prazer em revê-la...você está bonita
A	                                Dm   A
Muito elegante mais jovem...tão cheia de vida
Dm	                                  Gm Gm7 Gm
Eu ainda falo de flores....e declamo o seu nome
A	                                 D       A
Mesmo os meus dedos me traem....disco o seu telefone

D            D7+        D6             D7+    D	G      D/F#
É minha cara, eu mudei minha cara....mas por dentro eu não mudo
Em	   		         A                    D        A
O sentimento não para, a doença não sara seu amor ainda é tudo.....tudo
D	           Bm	       Em Em7 Em
Daquele momento até hoje esperei você
A	                           D        A
Daquele maldito momento até hoje....só você
D	                Bm	                 Em Em7 Em
Eu sei  que o culpado de não ter você....sou eu
	A	                           Dm A
E esse medo terrível de amar outra vez....é meu

(repete intro)

Dm	                          Gm  Gm7 Gm
Sei, não devia dizer......disse.....perdoa
A	                                      Dm    A
Bem que eu queria encontrá-la e sorrir....numa boa
Dm	                             Gm  Gm7 Gm
Mas convenhamos a vida nos faz....tão pequenos
A	                                D     A
Nos preparamos pra muito....choramos por menos

D            D7+        D6             D7+    D	   G    D/F#
É minha cara, eu mudei minha cara....mas por dentro eu não mudo
Em	                          A	                     D	  A
O sentimento não para, a doença não sara seu amor ainda é tudo.....tudo
D	           Bm	      Em Em7 Em
Daquele momento até hoje esperei você
A	                           D        A
Daquele maldito momento até hoje....só você
D	                Bm  	     Em    Em7 Em
Eu sei  que o culpado de não ter você....sou eu
	A	                          Dm  Gm Dm
E esse medo terrível de amar outra vez....é meu


(intro simplificada)


E|-------1--1--0--------------1--1--0-------------------------------
B|----------------3--1-----------------3--1--------1----------------
G|-1--2-----------------2--3-----------------3--2-----0--2----------
D|----------------------------------------------------------3--2--0-
A|------------------------------------------------------------------
E|------------------------------------------------------------------


E|------------
B|------------
G|------------
D|-2--0-------
A|-------4----
E|------------
    Composição: Moacyr FrancoColaboração e revisão:
    • Sidnei
    • Gilmar Ribeiro
    • Men In Black

    Comentários 3

    140 .
    140 cancelar

    conseguiu tocar?

    • Drey
    • gustavo
    • Paulo Cesar
    • rafaelbtos
    • jonasdantaspigeon
    • bruno...detroit
    • kristyan
    • •••
    Bruno Garbelini569 visualizações
      ver covers de outras músicas »
      0:00 / 0:00

      Capítulos

        1 versão de violão dificuldade exibições contribuição e correção
        1 versão de guitarra dificuldade exibições contribuição e correção
        1 versão de cavaco dificuldade exibições contribuição e correção
        1 versão de teclado dificuldade exibições contribuição e correção
        play/pausefechar subir/descer velocidade
        6ª corda E5ª corda A4ª corda D3ª corda G2ª corda B1ª corda E
          acordes
          publicidad
          fechar
          ok