Intro:
G-|------------------------|---------------|----------------->
D-|------------------------|-----------5-7-|----------------->
A-|---5-5---5-5------------|---5-5-5-7-----|---5-5-(bateria)->
E-|-0-----0-----(guitarra)-|-0-------------|-0--------------->
    P S S P S S		     P S S S S S S   P S S

Intro 2:
G-|------------------------------------------------------------------->
D-|----------------------------------------------------7-------------->
A-|----------------------7-------------------------------------------->
E-|-0--0--0--5~--0--0--0---0--0--0-5~-0-0-0-2-3--0-0-0---0-0-0-5-0-0-0>

("Eu queria um apartamento no Guarujá...")
G-|------------------|------------------|------------------|
D-|----5---5---------|----5---5---------|----5---5---------|
A-|-7----7---7-----5-|-7----7---7-----5-|-7----7---7-----5-|
E-|------------5-7---|------------5-7---|------------5-7---|

Refrão: ("MONEY, que é GOOD e nós num HAVE...")
G-|----------------------------------------|--------------->
D-|----------------------------------------|--------------->
A-|----------------------------------------|---5-5---5-5--->
E-|-3-33-0-1-11-1/3-33-0-1-11/3-33-0-1-1-1-|-0-----0-----0->
					     P S S P S S P
G-|----------------------------------------|---|->
D-|----------------------------------------|---|->
A-|----------------------------------------|---|->
E-|-3-33-0-1-11-1/3-33-0-1-11/3-33-0-1-1-1-|-0-|-> 

G-|------------------------------------------------------>
D-|----------------------------------------------------7->
A-|----------------------7------------------------------->
E-|-0--0--0--5~--0--0--0---0--0--0-5~-0-0-0-2-3--0-0-0--0-0-0-5-0-0-0>

("Mas a pior de todas é minha mulher...")
G-|------------------|------------------|------------------|
D-|----5---5---------|----5---5---------|----5---5---------|
A-|-7----7---7-----5-|-7----7---7-----5-|-7----7---7-----5-|
E-|------------5-7---|------------5-7---|------------5-7---| 

G-|----------------------------------------|--------------->
D-|----------------------------------------|--------------->
A-|----------------------------------------|---5-5---5-5--->
E-|-3-33-0-1-11-1/3-33-0-1-11/3-33-0-1-1-1-|-0-----0-----0->
					     P S S P S S P
G-|----------------------------------------|---|->
D-|----------------------------------------|---|->
A-|----------------------------------------|---|->
E-|-3-33-0-1-11-1/3-33-0-1-11/3-33-0-1-1-1-|-0-|-> 

G-|-----------------------------------------|       | ------------->
D-|------------------------------------------|       |----------7->
A-|----------------------7-------------------|      | ------------>
E-|-0--0--0--5~--0--0--0---0--0--0-5~-0-0-0-|        |--0-0-0--0-0-0-5-0-0-0>

("Mas a pior de todas é minha mulher...")
G-|------------------|------------------|------------------|
D-|----5---5---------|----5---5---------|----5---5---------|
A-|-7----7---7-----5-|-7----7---7-----5-|-7----7---7-----5-|
E-|------------5-7---|------------5-7---|------------5-7---| 

G-|----------------------------------------|--------------->
D-|----------------------------------------|--------------->
A-|----------------------------------------|---5-5---5-5--->
E-|-3-33-0-1-11-1/3-33-0-1-11/3-33-0-1-1-1-|-0-----0-----0->
					     P S S P S S P
G-|----------------------------------------|---|->
D-|----------------------------------------|---|->
A-|----------------------------------------|---|->
E-|-3-33-0-1-11-1/3-33-0-1-11/3-33-0-1-1-1-|-0-|->

G-|----------------------------------------|
D-|----------------------------------------|
A-|----------------------------------------|
E-|-3-33-0-1-11-1/3-33-0-1-11/3-33-0-1-1-1-|

G-|----------------------------------------|---|->
D-|----------------------------------------|---|->
A-|----------------------------------------|---|->
E-|-3-33-0-1-11-1/3-33-0-1-11/3-33-0-1-1-1-|-0-|->

G-|----------------------------------------|
D-|----------------------------------------|
A-|----------------------------------------|
E-|-0-0-0-0-0-0-0-0------------------------|

Comentários 1

  • Diego Diego: Postado em 27/11/2013 19:49

    totalmente errado o baixo

Composição: Dinho / Júlio Rasec
Esse não é o compositor? Avise-nos.
Contribuição: jrsmamonas
publicidade
fechar