Cifra Club

1406

Mamonas Assassinas

Tab de baixo: Principal
exibições 65.579
[Introdução]

Parte 1 de 2
   T  P P T T P  T P P T T P  P T T  P T P  P
G|----2-x-----1----2-x-----1--x------2---1--6/7-|
D|------------------------------------------6/7-|
A|----------------------------------------------|
E|-0------0-x----0-----0-x------0-x----x--------|
B|----------------------------------------------|

   T  P T T P T P  P T T P  T
G|----------2---1--------x----------------------|
D|----x------------x----------------------------|
A|----------------------------------------------|
E|-0----x-x---x------x-x----3-------------------|
B|----------------------------------------------|

Pate 2 de 2
   T
G|----------------------------------------------|
D|----------------------------------------------|
A|----------------------------------------------|
E|-0--0--0--0--0--0--0--2-3---------------------|
B|----------------------------------------------|

G|----------------------------------------------|
D|----------------------------------------------|
A|----------------------------------------------|
E|-0--0--0--0--0--0--0--0-----------------------|
B|----------------------------------------------|


[Primeira parte]

Eu queria um apartamento no Guarujá...

(4x)
G|----------------------------------------------|
D|----------------------------------------------|
A|-----4-5-----6-7---4------4-5-----6-7---4-----|
E|-0-3-----3-0-----3----0-3-----3-0-----3-------|
B|----------------------------------------------|


[Refrão]

Money,que é good nós num have...

Parte 1 de 2 
   T P P T T  P  P T  P P T T T T  P T   T P P
G|---------------x------------------------------|
D|---5-5------3-------5-5----------4-------5-5--|
A|----------------------------------------------|
E|-3-----0-1-------3-------0-1-1-2----2--3------|
B|----------------------------------------------|

   T T  P  T T  P P T T  P P T
G|--------------7-7------2-2--------------------|
D|------3---------------------------------------|
A|----------------------------------------------|
E|-0-1-----0-x------0-x------0------------------|
B|----------------------------------------------|

Parte 2 de 2 
   P T P P T T  P  P T  P P T T T T  P T   T P P
G|-x---------------x----------------------------|
D|-----5-5------3-------5-5----------4-------5-5|
A|----------------------------------------------|
E|---3-----0-1-------3-------0-1-1-2----2--3----|
B|----------------------------------------------|

   T T P P T
G|----------------------------------------------|
D|-----x-3--------------------------------------|
A|----------------------------------------------|
E|-0-1-----0--13\-------------------------------|
B|----------------------------------------------|


[Introdução 2]

G|----------------------------------------------|
D|----------------------------------------------|
A|----------------------------------------------|
E|-0--0--0--0--0--0--0--2-3---------------------|
B|----------------------------------------------|

G|----------------------------------------------|
D|----------------------------------------------|
A|----------------------------------------------|
E|-0--0--0--0--0--0--0--0-----------------------|
B|----------------------------------------------|

[Segunda parte]

Mas a pior de todas é minha mulher...

(4x)
G|----------------------------------------------|
D|----------------------------------------------|
A|-----4-5-----6-7---4------4-5-----6-7---4-----|
E|-0-3-----3-0-----3----0-3-----3-0-----3-------|
B|----------------------------------------------|


[Refrão 2]

Money,que é good nós num have...

Parte 1 de 2 
   T P P T T  P  P T  P P T T T T  P T   T P P
G|---------------x------------------------------|
D|---5-5------3-------5-5----------4-------5-5--|
A|----------------------------------------------|
E|-3-----0-1-------3-------0-1-1-2----2--3------|
B|----------------------------------------------|

   T T  P  T T  P P T T  P P T
G|--------------7-7------2-2--------------------|
D|------3---------------------------------------|
A|----------------------------------------------|
E|-0-1-----0-x------0-x------0------------------|
B|----------------------------------------------|

Parte 2 de 2 
   P T P P T T  P  P T  P P T T T T  P T   T P P
G|-x---------------x----------------------------|
D|-----5-5------3-------5-5----------4-------5-5|
A|----------------------------------------------|
E|---3-----0-1-------3-------0-1-1-2----2--3----|
B|----------------------------------------------|

   T T P P T
G|----------------------------------------------|
D|-----x-3--------------------------------------|
A|----------------------------------------------|
E|-0-1-----0--13\-------------------------------|
B|----------------------------------------------|


[Introdução 3]

G|----------------------------------------------|
D|----------------------------------------------|
A|----------------------------------------------|
E|-0--0--0--0--0--0--0--------------------------|
B|----------------------------------------------|

G|----------------------------------------------|
D|----------------------------------------------|
A|----------------------------------------------|
E|-0--0--0--0--0--0--0--0-----------------------|
B|----------------------------------------------|

 
[Terceira parte]

Mas a pior de todas é minha mulher...

(4x)
G|----------------------------------------------|
D|----------------------------------------------|
A|-----4-5-----6-7---4------4-5-----6-7---4-----|
E|-0-3-----3-0-----3----0-3-----3-0-----3-------|
B|----------------------------------------------|


[Refrão 3]

Money,que é good nós num have...

Parte 1 de 4   
   T P P T T  P  P T  P P T T T T  P T   T P P
G|---------------x------------------------------|
D|---5-5------3-------5-5----------4-------5-5--|
A|----------------------------------------------|
E|-3-----0-1-------3-------0-1-1-2----2--3------|
B|----------------------------------------------|

   T T  P  T T  P P T T  P P T
G|--------------7-7------2-2--------------------|
D|------3---------------------------------------|
A|----------------------------------------------|
E|-0-1-----0-x------0-x------0------------------|
B|----------------------------------------------|

Parte 2 de 4 
   P T P P T T  P  P T  P P T T T T  P T   T P P
G|-x---------------x----------------------------|
D|-----5-5------3-------5-5----------4-------5-5|
A|----------------------------------------------|
E|---3-----0-1-------3-------0-1-1-2----2--3----|
B|----------------------------------------------|

   T T P P T
G|----------------------------------------------|
D|-----x-3--------------------------------------|
A|----------------------------------------------|
E|-0-1-----0------------------------------------|
B|----------------------------------------------|

Parte 3 de 4  
   T P P T T  P  P T  P P T T T T  P T   T P P
G|---------------x------------------------------|
D|---5-5------3-------5-5----------4-------5-5--|
A|----------------------------------------------|
E|-3-----0-1-------3-------0-1-1-2----2--3------|
B|----------------------------------------------|

   T T  P   
G|----------------------------------------------|
D|------3---------------------------------------|
A|----------------------------------------------|
E|-0-1------------------------------------------|
B|----------------------------------------------|

Parte 4 de 4  
   P T P P T T  P  P T  P P T T T T  P T   T P P
G|-x---------------x----------------------------|
D|-----5-5------3-------5-5----------4-------5-5|
A|----------------------------------------------|
E|---3-----0-1-------3-------0-1-1-2----2--3----|
B|----------------------------------------------|

   T T P P T
G|----------------------------------------------|
D|-----x-3--------------------------------------|
A|----------------------------------------------|
E|-0-1-----0------------------------------------|
B|----------------------------------------------|


[Introdução 4]

Parte 1 (2x + fade out)

  T  P P T T P P T P P T T P  P T T  P T P  P
G|---2-x-----1-x---2-x-----1--x------2---1--6/7-|
D|------------------------------------------6/7-|
A|----------------------------------------------|
E|-0-----0-x-----0-----0-x------0-x----x--------|
B|----------------------------------------------|

   T  P T T P T P  P T T P  T
G|----------2---1--------x----------------------|
D|----x------------x----------------------------|
A|----------------------------------------------|
E|-0----x-x---x------x-x----3-------------------|
B|----------------------------------------------|
Composição: Dinho / Júlio Rasec Colaboração e revisão:
  • Reginaldo Costa
  • jeremias

0 comentários

mostrar mais comentários

Conseguiu tocar?

3 tocaram 2 ainda não

Grave um vídeo tocando 1406 e mande pra gente!

00:00 / 00:00
outros vídeos desta música
repetir qualidade Automático
Outros vídeos desta música
00:00 / 00:00
Automático
Capítulos
  • Tocando a música
  • Apresentação / Equipamentos
  • TAB - Introdução - Parte 1 de 2
  • TAB - Introdução - Parte 2 de 2
  • TAB - Primeira Parte
  • TAB - Refrão - Parte 1 de 2
  • TAB - Refrão - Parte 2 de 2
  • TAB - Introdução 2
  • TAB - Introdução 3
  • TAB - Refrão 3 - Parte 1 de 4
  • TAB - Refrão 3 - Parte 2 de 4
  • TAB - Refrão 3 - Parte 3 de 4
  • TAB - Refrão 3 - Parte 4 de 4
  • TAB - Introdução 4
  • Encerramento
OK