Cifra Club

1406

Mamonas Assassinas

Tab de baixo: Versão 3
intro vc toca com slaps muito loca essa introdução
o finado samuel tocava pra caralho
g------2--x---2----
d------------------
a------------------  2x
e--0-x------0------
b------------------
   T T P  P T P
g------2-1---1/2--------------
d------------1/2--------------
a-----------------------------
e-0-x-------------------------
b-----------------------------
  T T  P P   P H
g-------2--1-----------------------
d----------------------------------
a----------------------------------
e-0-0x---------------------3---0--
b----------------------------------
  T TT  P  P              (Sem slap)
solo da guitarra vc da um toque em mi em um serto tempo(essa parte é sem slaps)
g-----------------------------------------------
d-----------------------------------------------
a-----------------------------------------------
e-0--0-0-0-0-0-0--2--3----0--0--0--0--0--0--0---

eu queria um apartamento (essa parte é sem slaps)
g-------------------------
d-------------2-----------
a-----4-5---4--------4----
e-0-4-----2-----3---------
b-------------------------

refrão vc tem que tocar dando slaps
g---------------------
d---5--------3--------
a---------------------
e-3---0--1------------
b---------------------
  T P T  T   P
g---------------------
d---5-----------3-----
a---------------------
e-3---0--1-1--1-------
b---------------------
  T P T  T T  T P
g---------------------
d---5--------3--------
a---------------------
e-3---0--1------------
b---------------------
  T P T  T   P
g-----0-0---------0-0------0-
d----------------------------
a----------------------------
e---------0-----------0------
b----------------------------
      P P T       P P T    T
g---------------------
d---5--------3--------
a---------------------
e-3---0--1------------
b---------------------
  T P T  T   P
g---------------------
d---5-----------3-----
a---------------------
e-3---0--1-1--1-------
b---------------------
  T P T  T T  T P
g---------------------
d---5--------3--------
a---------------------
e-3---0--1------------
b---------------------
  T P T  T   P
exibições 15.591
Composição: Dinho / Júlio Rasec Colaboração e revisão:
  • arthur higino
  • Hector rigon

0 comentários

mostrar mais comentários

Conseguiu tocar?

0 tocaram 0 ainda não

Grave um vídeo tocando 1406 e mande pra gente!

00:00 / 00:00
outros vídeos desta música
repetir qualidade Automático
Outros vídeos desta música
00:00 / 00:00
Automático
Capítulos
  • Tocando a música
  • Apresentação / Equipamentos
  • TAB - Introdução - Parte 1 de 2
  • TAB - Introdução - Parte 2 de 2
  • TAB - Primeira Parte
  • TAB - Refrão - Parte 1 de 2
  • TAB - Refrão - Parte 2 de 2
  • TAB - Introdução 2
  • TAB - Introdução 3
  • TAB - Refrão 3 - Parte 1 de 4
  • TAB - Refrão 3 - Parte 2 de 4
  • TAB - Refrão 3 - Parte 3 de 4
  • TAB - Refrão 3 - Parte 4 de 4
  • TAB - Introdução 4
  • Encerramento
OK