Chopis Centis

Mamonas Assassinas

 Mamonas Assassinas
INTRO(X6)
                  
G|--------------------------------------|
D|--------------------------------------| 
A|------5-5-5-5-------------------------|
E|5-5-5---------5-----------------------|

A PRIMEIRA E SEGUNDA PARTE E ASSIM


G|--------------------------------------|
D|--------------------------------------|
A|-5-x-5-5-X-5/7|-X-7-7-X-------5-5-5-5-|
E|-----------------------5-5-5----------|
 
 REFRÃO(X2)

G|------------------------------------------------------------------------------------------------|
D|------------------------------------------------------------------------------------------------|
A|5-5-5-5-5-5-5-5-5/7-7-7-7-7-7-7-7-------------------------2/5-5-X-5-5-5-5-5-5/7-7-X-7-7-7-7-7-7-|
E|----------------------------------5-5-5-5-5-4-3-2-X-2-2-X---------------------------------------|

DEPOIS DE REPETIR O REFRÃO (X2) FAZ A INTRO (3X).AI FAZ A PRIMEIRA E SEGUNDA PARTE E O REFRÃO DE NOVO.

Comentários 0

Composição: Dinho / Júlio Rasec
Esse não é o compositor? Avise-nos.
Contribuição: TrOoPeR_1987 Correções: thailson , SuRdO e mais 2 »
publicidade
fechar