Chopis Centis

Mamonas Assassinas

 Mamonas Assassinas
INTRO(X6)
                  
G|--------------------------------------|
D|--------------------------------------| 
A|------5-5-5-5-------------------------|
E|5-5-5---------------------------------|

A PRIMEIRA E SEGUNDA PARTE E ASSIM


G|--------------------------------------|
D|--------------------------------------|
A|-5-x-5-5-X-5/7|-X-7-7-X-------5-5-5-5-|
E|-----------------------5-5-5----------|
 
 REFRÃO(X2)

G|------------------------------------------------------------------------------------------------|
D|------------------------------------------------------------------------------------------------|
A|5-5-5-5-5-5-5-5-5/7-7-7-7-7-7-7-7-------------------------2/5-5-X-5-5-5-5-5-5/7-7-X-7-7-7-7-7-7-|
E|----------------------------------5-5-5-5-5-4-3-2-X-2-2-X---------------------------------------|

DEPOIS DE REPETIR O REFRÃO (X2) FAZ A INTRO (3X).AI FAZ A PRIMEIRA E SEGUNDA PARTE E O REFRÃO DE NOVO.

Comentários (0)

Composição: Dinho / Júlio Rasec
Esse não é o compositor? Avise-nos.
Contribuição: TrOoPeR_1987 Correções: Jose e mais 2 »
  1. Tudo Que Você Quiser - Luan Santana Manteve-se 6.004 exibições
  2. Lepo Lepo - Psirico Manteve-se 4.431 exibições
  3. Mozão - Lucas Lucco Manteve-se 4.139 exibições
  4. Logo Eu - Jorge e Mateus Manteve-se 3.880 exibições
  5. Gaveta - Fernando e Sorocaba Manteve-se 3.331 exibições
  6. Pra Você - Onze:20 Manteve-se 3.309 exibições
  7. Só Os Loucos Sabem - Charlie Brown Jr. Manteve-se 3.010 exibições
  8. Tempo Perdido - Legião Urbana Manteve-se 2.530 exibições
  9. Fui Fiel - Gusttavo Lima Manteve-se 2.507 exibições
  10. Na Linha do Tempo - Victor e Leo Manteve-se 2.140 exibições
  1. Jorge e Mateus- Manteve-se 23.268 exibições
  2. Legião Urbana- Manteve-se 20.589 exibições
  3. Luan Santana- Manteve-se 17.386 exibições
  4. Charlie Brown Jr.- Manteve-se 17.172 exibições
  5. Fernandinho- Manteve-se 14.617 exibições
  6. Thalles Roberto- Manteve-se 11.189 exibições
  7. Católicas- Manteve-se 11.033 exibições
  8. Gusttavo Lima- Manteve-se 10.465 exibições
  9. Victor e Leo- Manteve-se 10.434 exibições
  10. Aline Barros- Manteve-se 10.076 exibições

Cifras e tabs

Fórum Cifra Club

Aprenda

Cifra Club News

Mais Serviços Cifra Club ID

Studio Sol

©1996 - 2014 Cifra Club · o primeiro, maior e mais acessado do Brasil · 329 mil músicas · 5.9 milhões pessoas cadastradas

publicidade
fechar