Odiosa Natureza Humana

Matanza

 Matanza
Tom: E
		
 Intr: C# E  C# B  C# E (F# G#) + Agudos  C# E  C# B  A  B
Riff:

E|---------|
B|---------|
G|---------|
D|---------|
A|---5-6-7-|
E|-7-------|


E                            (Riff)   E
   Se todo mundo fosse embora          E só eu ficasse aqui
Riff 2:

E|-------------|
B|-------------|
G|-------------|
D|-------------|
A|-7-7-7-6-5-4-|
E|-------------|


 C#                            A          B           E  (Riff)
   Eu teria nessa hora   Um bom motivo pra sorrir
Riff 3:

E|---------|
B|---------|
G|---------|
D|---------|
A|-4-3-2-0-|
E|---------|


E                      (Riff)  E                            (Riff 2)
  Se tudo desaparecesse         E não ficasse mais ninguém
C#                        (Riff 3)  A          B
   Somente num dia desses             Eu passaria muito

 E
Bem...

Refrão:
C#                                         B
Sonho que eu tenho por noites seguidas Do mundo acabando num belo dia
C#                          B
   Sem choro nem despedida Mesmo porque ninguém se conhecia
  A       B       C#             A         B          C#   (E  D# C#)
Chame de misantropia ou como quiser Mas você não me engana
     A      B        C#            A          (F# + Agudo)
Não perde quem desconfia Culpa da nossa tão odiosa natureza humana

(repete tudo)

Solo:

     C# E  C#
E|----------------------------------------|----------------------------------------
B|----------------------------------------|----------------------------------------
G|---------------------------4-4h6-4------|------4-4h6-4-----------------------9-6-
D|-------------------------6---------7-6-7|-66-7---------767------6-9---9-77-6-----
A|----------4-5-4-5-6-7-77----------------|------------------7-77------------------
E|----------------------------------------|---------------------------7------------


                 C#                                     A               B             E
E|---------------------------------------------------|---------------------------------
B|---------------------------------------------------|---------------------------------
G|---------------------------------------------------|---------------------------------
D|-99-6-9-6------------------------------------------|---------------------------------
A|----------9-7-----7-9-1111-9-7-6-7-6-7-9-1111-9-7--|-------4-5-4---------------5-6-7-
E|--------------9-9---------------------------------9|-5-5-7-------7-5-7-7-7-5-7-------


Baixo:

  (Pausa)                 (Pausa)          C#  A  B  E
G|-------6-----------------|-------6--------------------------------
D|---6-9---9-7-6-9---------|---6-9---9-7-6-9-999-7-6-4--------------
A|-7---------------777-7777|-7--------------------------------------
E|-------------------------|----------------------------------------


( C#  E  C#  B  C#  E  F#  G#  E )
9.922 exibições

Comentários 2

Exibir acordes »
publicidade
fechar