Notificações Amigos pendentes

      Matanza

      Odiosa Natureza Humana

      12.373 exibições
      Tom: E
       Intr: C# E  C# B  C# E (F# G#) + Agudos  C# E  C# B  A  B
      Riff:
      
      E|---------|
      B|---------|
      G|---------|
      D|---------|
      A|---5-6-7-|
      E|-7-------|
      
      
      E                            (Riff)   E
         Se todo mundo fosse embora          E só eu ficasse aqui
      Riff 2:
      
      E|-------------|
      B|-------------|
      G|-------------|
      D|-------------|
      A|-7-7-7-6-5-4-|
      E|-------------|
      
      
       C#                            A          B           E  (Riff)
         Eu teria nessa hora   Um bom motivo pra sorrir
      Riff 3:
      
      E|---------|
      B|---------|
      G|---------|
      D|---------|
      A|-4-3-2-0-|
      E|---------|
      
      
      E                      (Riff)  E                            (Riff 2)
        Se tudo desaparecesse         E não ficasse mais ninguém
      C#                        (Riff 3)  A          B
         Somente num dia desses             Eu passaria muito
      
       E
      Bem...
      
      Refrão:
      C#                                         B
      Sonho que eu tenho por noites seguidas Do mundo acabando num belo dia
      C#                          B
         Sem choro nem despedida Mesmo porque ninguém se conhecia
        A       B       C#             A         B          C#   (E  D# C#)
      Chame de misantropia ou como quiser Mas você não me engana
           A      B        C#            A          (F# + Agudo)
      Não perde quem desconfia Culpa da nossa tão odiosa natureza humana
      
      (repete tudo)
      
      Solo:
      
           C# E  C#
      E|----------------------------------------|----------------------------------------
      B|----------------------------------------|----------------------------------------
      G|---------------------------4-4h6-4------|------4-4h6-4-----------------------9-6-
      D|-------------------------6---------7-6-7|-66-7---------767------6-9---9-77-6-----
      A|----------4-5-4-5-6-7-77----------------|------------------7-77------------------
      E|----------------------------------------|---------------------------7------------
      
      
                       C#                                     A               B             E
      E|---------------------------------------------------|---------------------------------
      B|---------------------------------------------------|---------------------------------
      G|---------------------------------------------------|---------------------------------
      D|-99-6-9-6------------------------------------------|---------------------------------
      A|----------9-7-----7-9-1111-9-7-6-7-6-7-9-1111-9-7--|-------4-5-4---------------5-6-7-
      E|--------------9-9---------------------------------9|-5-5-7-------7-5-7-7-7-5-7-------
      
      
      Baixo:
      
        (Pausa)                 (Pausa)          C#  A  B  E
      G|-------6-----------------|-------6--------------------------------
      D|---6-9---9-7-6-9---------|---6-9---9-7-6-9-999-7-6-4--------------
      A|-7---------------777-7777|-7--------------------------------------
      E|-------------------------|----------------------------------------
      
      
      ( C#  E  C#  B  C#  E  F#  G#  E )

      Comentários 2

      140 .
      140 cancelar

      conseguiu tocar?

      covers

      Grave um vídeo tocando Odiosa Natureza Humana e mande pra gente!

      Ex.: http://www.youtube.com/watch?v=0IvSvIwGdwk
      ver covers de outras músicas »
      0:00 / 0:00

      Capítulos

        1 versão de violão dificuldade exibições contribuição e correção
        1 versão de guitarra dificuldade exibições contribuição e correção
        1 versão de cavaco dificuldade exibições contribuição e correção
        1 versão de teclado dificuldade exibições contribuição e correção
        play/pausefechar subir/descer velocidade
        6ª corda E5ª corda A4ª corda D3ª corda G2ª corda B1ª corda E
          acordes
          publicidade
          fechar
          ok