Cifra Club

Aprenda

Maldito Hippie Sujo

Matanza

Cifra: Principal (violão e guitarra)
Tom: C
Intro:

E|-----------------|-------------------|                          
B|-----------------|-------------------|                          
G|---3-3-3-2--0----|-------------------|                          
D|---------------2-|---2---2----2------| 2x                       
A|---------------2-|---2---2----2------|                          
E|-----------------|-3-0-3-0-3--0------|                           
                                                                  
E|-----------------|-------------------------------------|              
B|-----------------|-------------------------------------|              
G|---3-3-3-2--0----|-------------------------------------|              
D|---------------3-|--3-3-3-3-3-3----2---2---2---2----2--|        
A|---------------1-|--1-1-1-1-1-1--3-2---2---2---2----2--|        
E|-----------------|---------------1-0-3-0-3-0-3-0-3--0--|        

Em
Ei patrão, olha só quem vem ali
                           A#5
O hippie da cidade não quis ir embora não
Em                              C
Não dá pra acreditar que ele ainda está de pé
      Em              Em
E caminhando em nossa direção

Em
Foi muita coragem ter aparecido aqui
                     A#5
De certo a nossa língua não entende muito bem
Em                     C
Sempre que dissermos "saia" é pra sair
Em                   B C   Em
Mas se quiser ficar, pois bem

Refrão

F# G  A            B                 Em
   A discussão é natural em qualquer desentendimento
A            B            Em
E tudo é só questão de opinião
A              B                G
Exatamente como eu estava lhe dizendo
           A                    G
Maldito hippie sujo quero que vá embora
              Em   Riff2
Saia já daqui!

Em
Ei patrão não sei mais o que fazer
                          A#5
Quanto mais eu bato nele, mais ainda ri de mim
Em                        C
Ta lá desde ontem pendurado pelas mãos
  Em               C   Em
E nem parece achar ruim

Em
Ei seu hippie imundo, o que há de errado com você?
                           A#5
Querendo esculhambar com a tradição do nosso povo
Em                              C
Pega o marcador de gado lá pra gente ver
Em                       B C   Em
Se ele vai aparecer aqui de novo

Refrão

Em
Ei patrão, não sei como lhe dizer
                                    A#5
Mas eu vi mais de quarenta deles vindo pelo rio
Em                     C
Sei que lá no alto na estrada tinha uns cem
Em                C   Em
E ali no pasto, mais de mil

Em
E o hippie se levanta e diz: "agora é minha vez!"
A#5
Quero que vocês, porcos, ouçam muito bem
Em                      C
É bom que amem mesmo a terra de vocês
Em                      C  Em
Pois daqui não vai sair ninguém

A                G                 Em
Em pouco menos de uma hora já estavam todos mortos,
A             G            Em
Todos espalhados pelo chão
A              G                Em
De tudo isso resta o ódio como herança,
 C
Nada de esperança
                                   Em
Só mais uma historia e que não acaba aqui
Composição de Donida
Colaboração e revisão:
  • Matheus Barbieri
  • Fabiano Pinto
  • Diego Nascimento
74.980 exibições
    • ½ Tom
    • A
    • Bb
    • B
    • C
    • Db
    • D
    • Eb
    • E
    • F
    • F#
    • G
    • Ab
  • Adicionar à lista

    0 comentários

    Mostrar mais comentários

    Conseguiu tocar?

    14 Tocaram 0 Ainda não

    Grave um vídeo tocando Maldito Hippie Sujo e mande pra gente!

    00:00 / 00:00
    outros vídeos desta música
    repetir qualidade Automático
    Outros vídeos desta música
    00:00 / 00:00
    Automático

    Cifra Club Pro

    Aproveite o Cifra Club com benefícios exclusivos e sem anúncios
    Cifra Club Pro
    Aproveite o Cifra Club com benefícios exclusivos e sem anúncios
    OK