Notificações Amigos pendentes

      Matanza

      Pé na porta, e soco na cara

      93.467 exibições
      Tom: F
      Intro / Riff:
      
      E|-----------------|
      B|-----------------|
      G|-----------------|
      D|------3----------|
      A|--x-x-1-x-x-3-x-3-|
      E|--x-x---x-x-1-x-1-|
      
      
      (Riff)
      Pra quem ja viu num passa do imbecil
      Não tem ninguém com quem esteja de bem
      
      Bb C      Bb C
         Não te peço cosideração
      (Riff)
      Ou voce tem ou não
      Bb C      Bb C
         Antes havia mais gente ao redor
      (Riff)
      Hoje é cada vez mais só
      
      Ab          Bb
        E toda paciência um dia chega ao fim
      (Riff)
      Ab          Bb                         C
        Inevitavelmente isso termina assiiiiiiiim
      
      Refrão:
      F Bb C Bb
      Ôôôôôôôôô na cara reto que arrebenta o nariz
      essa noite vai dormir feliz
      F               Ab      Bb
      Pé na porta, e soco na cara
      
      Intro 2x
      
      (Riff)
      Achou por bem acabar com o dia de alguém
      Então sendo assim tinha que escolher justo a mim
      
      Bb C                  Bb C
         Conto o que eu não tenho diz o que eu não posso
      (Riff)
      O que é meu é meu o que é seu é nosso
      Bb C                  Bb C
        Qualquer infeliz tem mais o que fazer
      (Riff)
      Só voce não parece ter
      
      Ab              Bb
      E eu não tenho nada mais a lhe dizer
      (Riff)
      Ab             Bb                   C
      O papo com voce agora tem que seeeeeeeeer
      Solo:
      
      E|-----------------------------------------------------------------------|
      B|-----------------------------------------------------------------------|
      G|-5-5-5-5-5-3-2-3-2---2-2-9-9-9-9-9-7-6-6\4\3-3-4\3-3-4\3---------------|
      D|------------------3-3-----------------------------------10-10-10-10-10-|
      A|-----------------------------------------------------------------------|
      E|-----------------------------------------------------------------------|
      
      
      E|-----------------------------------------------------------------------|
      B|-----------------------------------------------------------------------|
      G|-----------------------------------------------------------------------|
      D|-8-7-8-7--------------------3-------------7-8-8/10-10-10-10-10-8-7-8-7-|
      A|--------8-8-10-8-8\6-6-6-1/3-3-3/8-8-8-8-8-8-8-------------------------|
      E|-----------------------------------------------------------------------|
      
      
      E|-----------------------------------------------------------------------|
      B|-----------------------------------------------------------------------|
      G|------------------------------------8-8-8-8-8-10-10-10-10-10-----------|
      D|--8/10-10-10-10-10-8/10-10-10-10-10------------------------------------|
      A|-----------------------------------------------------------------------|
      E|-----------------------------------------------------------------------|
      
      
      E|-----------------------------------------------------------------------|
      B|-13-13-13-13-13-11-10-11-10-----11-------------------------------------|
      G|---------------------------10-10--10\8-8-8-------------5-5-5-5-5-5-5-5-|
      D|------------------------------------------10/11-10-8-6-5-5-5-5-5-5-5-5-|
      A|-------------------------------------------------------3-3-3-3-3-3-3-3-|
      E|-----------------------------------------------------------------------|
      

      Comentários 2

      140 .
      • nelsonnls nelsonnls: Em 03/01/2014 14:18

        Esse solo não esta 100%, falta um finalzinho e uns reparo.

      • Ivan Deff Ivan Deff: Em 14/08/2011 10:55

        Música facinha essa, o foda pra mim foi só fazer o riff e cantar ao mesmo tempo, tirando isso...

      140 cancelar

      conseguiu tocar?

      • •••

      covers

      Grave um vídeo tocando Pé na porta, e soco na cara e mande pra gente!

      Ex.: http://www.youtube.com/watch?v=0IvSvIwGdwk
      ver covers de outras músicas »
      0:00 / 0:00

      Capítulos

        1 versão de violão dificuldade exibições contribuição e correção
        1 versão de guitarra dificuldade exibições contribuição e correção
        1 versão de cavaco dificuldade exibições contribuição e correção
        1 versão de teclado dificuldade exibições contribuição e correção
        1 versão de Guitar Proformatodownloadscontribuição
        play/pausefechar subir/descer velocidade
        6ª corda E5ª corda A4ª corda D3ª corda G2ª corda B1ª corda E
          acordes
          publicidade
          fechar
          ok