Cifra Club

Ela roubou meu caminhão

Matanza

Cifra: Principal
exibições 172.739
Tom: G
(intro 2x)

       D       A        D       A
E|----------------------------------|
B|----------------------------------|
G|-----2-----2-4-2------2-----------|
D|-0-0---0-4--------0-0---0-4-------|
A|----------------------------0-2-4-|
E|----------------------------------|

       D       A       D       A
E|---------------------------------|
B|---------------------------------|
G|-----2-----2-4-2-4-4-5-4-2-------|
D|-0-0---0-4-----------------0-2-4-|
A|---------------------------------|
E|---------------------------------|

(verso 1)
(power chord)
E|--------------------------------------|
B|--------------------------------------|
G|--------------------------------------|
D|------5-5-----------------------------|
A|------7-7--5-5-5-5--------------------|
E|-----------7-7-7-7--------------------|

D      A           D      A
Ela roubou meu caminhão
D      A           D      A
Ela roubou meu caminhão
D        A           D               A
Ela escreveu dizendo que não me aguentava mais
  D          A           D      A
E foi embora com meu caminhão

D            A          D     A
Foi embora e me deixou aqui
D            A          D     A
Foi embora e me deixou aqui
D             A            D            A
Quando eu acordei e vi meu caminhão não tava mais
  D             A              D   E F G
E nunca mais na vida eu vou dormir

(refrão)
                                  D
E eu que tinha até tatuado o nome dela
G
Eu pensava nela toda noite nesses
A
Dez anos que eu passei trancado naquela prisão
A A (pausa)
  Essa foi demais
A A (pausa)
  Isso não se faz
A A (pausa)         A                      D
  Ninguém vai acreditar ela roubou meu caminhão

(intro 1x)

(verso 2)

    D             A           D    A
Ela já deve estar bem longe daqui
    D             A           D    A
Ela já deve estar bem longe daqui
  D            A             D       A
Daqui pode ter pego qualquer rodovia federal
  D             A          D    A
E foi reto na reta até sumir

   D                 A           D    A
Só me pergunte o que é que aconteceu
   D                 A           D    A
Só me pergunte o que é que aconteceu
  D           A         D             A
Ela ter ido embora tudo bem eu não tô nem aí
   D           A              D   E F G
Perder meu caminhão foi que doeu

(refrão)

(intro 2x)

(outro)
C                              G                D
 Sinceramente pensei que dessa vez fosse me regenerar
C              G                 D
 Trabalhando honestamente com esposa cuidando do lar
A#    C                          D
 Uma vida bem normal pra envelhecer em paz
F         G                       A
 Mas o destino quis assim e agora tanto faz
(pausa)                     A
      Do bar não saio nunca mais

(solo)
      D      A       D      A
E|---------------------------|
B|---------------------------|
G|---------------------------|
D|-0-0-4-2-0---0-0--0-0------|
A|-----------2----------2-0-0|
E|---------------------------|
       D      A       D      A        D       A
E|----------------------------------------------|
B|--------------------------------3-3-3-3-------|
G|-2--2-2-4-2---2-2--2-2------------------4-2---|
D|------------4----------4-2-0----------------4-|
A|----------------------------------------------|
E|----------------------------------------------|

       D       A      D       A       D     A       D
E|-------------------------------------------------|
B|-----------------------------------3-------------|
G|-2-2-2-2-----------------------------4-2---------|
D|---------4-2-0--\4-4-4-4-2-2-4-2-0-------5-4-2-0-|
A|-------------------------------------------------|
E|-------------------------------------------------|

D
Ela roubou meu caminhão

Ela roubou meu caminhão
D
Ela escreveu dizendo que não me aguentava mais
                               A
E foi embora com meu caminhão

D D                     D D
Foi embora e me deixou aqui
D D                     D D A
Foi embora e me deixou aqui
D             A            D            A
Quando eu acordei e vi meu caminhão não tava mais
  D             A              D   E F G
E nunca mais na vida eu vou dormir

(refrão)
(intro 2x)
Acordes para:

    0 comentários

      mostrar mais comentários

      Conseguiu tocar?

      36tocaram0ainda não

      Grave um vídeo tocando Ela roubou meu caminhão e mande pra gente!

      00:00 / 00:00
      outros vídeos desta música
      repetirqualidadeautomática
      Outro vídeos desta música
        00:00 / 00:00
        automática
        OK