Welcome Home (Sanitarium)

Metallica

 Metallica
Tom: G
		
Tabbed by Vassilis Tzerpos

Legend:
 = Natural Harmonics         s = slide
~ = Cue notes                  p = pull-off
__3__ = Triads                 h = hammer-on
^ = bend                       r = release bend
x = dumped string              % = pick continuously and rapidly
/ = slide up to the note indicated from a few frets below
\ = slide back a few frets from the note indicated 
+ = rapid hammer and pull e.g. 8 = 8 h 10 p 8
                                    +

The song is in exact timing. 
Intro, chorus and rhythm figures 8th = ---- (except else indicated). 
Solos 8th = -------- (except solo 1)
Blank columns do not count in timing. They are just used to separate
adjacent fret numbers.

                        _3_

---------<12>-------3---353-2---|---------<12>-------2---2-----3-|
-------------<12>---------------|-------------<12>-------0-------|
--------------------------------|--------------------------------|
--------------------------------|--------------------------------|
--------------------------------|--------------------------------|
0-------------------------------|0-------------------------------|



0--------<12>-------------------|----------<12>------------------|
-------------<12>---------------|--------------<12>--------------|
--------------------------------|--------------------------------|
--------------------------------|--------------------------------|
--------------------------------|--------------------------------|
0-------------------------------|0-------------------------------|



---------<12>-------------------|----------<12>------------------|
-------------<12>---------------|--------------<12>--------------|
--------------------------------|------------------<12>----------|
--------------------------------|--------------------------------|
--------------------------------|--------------------------------|
0-------------------------------|0-------------------------------|


Rhy. Fig. 1 (8th=--)

----------------|----------------|------------------|   Repeat this figure 4 times
----------------|----------------|------------------|   alone, then 4 times under 
------0-------0-|------0---------|------------------|   the solo and 6 times under
----4-------5---|----7---------0-|-------0-----0----|   the verse. The notes with
--2-------3-----|--5---------4---|-----2------------|   a ~ under them are cue notes.
0-------0-------|0-------3s5-----|-5s3-----3s5------|   They hardly take time to sound

                                    ~       ~ 

Now comes solo 1. Timing isn't always exact but is close.


------------------------------|----------------15s17--17-----|----------------|
------------------------------|10-12s15-15s17----------------|----------------|
--------11--12--9---------12--|------------------------------|----------------|
----9-------------------------|------------------------------|----------------|
7-----------------------------|------------------------------|----------------|
------------------------------|------------------------------|----------------|



--15--15--12--12s14-----------|--------------------__3___----|----------------|
----------------------17^ r---|15-17--15--13--13---121312----|----------------|
------------------------------|--------------------------14--|12-s11----------|
------------------------------|------------------------------|--------12------|
------------------------------|------------------------------|------------14--|
------------------------------|------------------------------|----------------|



------------------------------|----19-----19-------------17--|171514----------|
------------------------------|--17---------17---------------|------171514----|
------------------------------|16-------------16-s14-14------|------------1614|
12s14-------------------------|------------------------------|----------------|
------------------------------|------------------------------|----------------|
------------------------------|------------------------------|----------------|


                               __3___

----------------------------12|101210----------------5-------|----3-----------|
--------------------------13--|------13--12------------------|----------------|
12^-----r---------------14----|------------------6-----------|4-----------6---|
----------------------14------|-------------/7----------/5---|-------/7-------|
------------------------------|------------------------------|----------------|
------------------------------|------------------------------|----------------|


Verses:  (with Rhy. Fig. 1)
1. Welcome to where time stands still, noone lives and noone will
Moon is full never seems to change, just labeled mentally deranged
Dream the sane thing every night, I see our freedom in my sight
No locked doors, no windows barred , no things to make my brain seem scared

2. Build my fear of what's out there, cannot breath the open air
Whisper things into my brain, assuring me that I'm insane
They think our heads are in their hands, but violent use brings violent plans
Keep him tied, it makes him well, he's getting better can't you tell?

1.Sleep my friend and you will see that dream is my reality
2.No more can they keep us in, listen damn it we will win

----------------|----------------|--------|
----------------|----------------|--------|
----------------|----------------|--------| 8th=--
----------------|----------------|--------|
----2-2-----3-3-|----5-5---------|--------|
0-0-----0-0-----|0-0-----5-5-5-3-|3-3-5-3-|


1.Keep me locked up in this cage, can't they see it's why my brain says rage?
2.They see it right, they see it well, but they think this saves from our hell

----------------|----------------|--------|
----------------|----------------|--------|
----------------|----------------|--------|8th=--
----------------|----------------|--------|
----2-2-----3-3-|----5-5---------|--------|
0-0-----0-0-----|0-0-----5-5-5-3-|3-3-5-3-|


CHORUS
                                                 Sa   -    ni   -

--------------------------------|--------------------------------|
--------------------------------|--------------------------------|
--------------------5s4-----5s4-|----------------_3_-------------|
------------5s4-----5s4-----5s4-|----------------020-------------|
------------5s4-----3s2-----3s2-|--------------------3-2---------|
0-------x-x-3s2-x-x-----x-x-----|------------------------5-3-2-3-|


tarium                                           leave   me

--------------------------------|--------------------------------|
--------------------------------|--------------------------------|
--------------------5s4-----5s4-|--------------------------------|
------------5s4-----5s4-----5s4-|--------------------------------|
------------5s4-----3s2-----3s2-|----2-2-2-2-2-2-3-2-------x-3---|
0-------x-x-3s2-x-x-----x-x-----|--------------------3-----x-1---|


be                                               Sa   -   ni    -

--------------------------------|--------------------------------|
--------------------------------|--------------------------------|
--------------------5s4-----5s4-|----------------_3_-------------|
------------5s4-----5s4-----5s4-|----------------020-------------|
------------5s4-----3s2-----3s2-|--------------------3-2---------|
0-------x-x-3s2-x-x-----x-x-----|------------------------5-3-2-3-|


tarium                                  just leave me alone

--------------------------------|--------------------------------| 1st time
--------------------------------|--------------------------------| go on with
--------------------5s4-----5---|4-------------------------------| the solo
------------5s4-----5s4-----5---|4-------------------------------| 2nd time
------------5s4-----3s2-----3---|2-------------------------------| skip to
0-------x-x-3s2-x-x-----x-x-----|--------------------------------| CODA


Now comes the second solo. The backing guitar plays a B chord for
the next line and then goes on 4 times with the backing rhythm 
of solo 1.



 ----------------------------------------------------------------|
 --------------------------------------------------------10------|
 ----------------------------------------7---7---9--s11----------|
 ------------------------7---7--s9-------------------------------|
 --------5---5---7--s9-------------------------------------------|
/7---------------------------------------------------------------|


For the next two lines we have two guitars soloing together.
For two notes they play on the same string (high E). In this
case the highest note is indicated above the tablature.

                22      22

--------15--17--19------19------19------------------------------|
17--19--------------------------17------------------------------|
----------------------------------------------------------------|
----------------------------------------------------------------|
----------------------------------------------------------------|
----------------------------------------------------------------|



                     

17-h19-p17------15------17-h19--17--------------17--19p17 17------|
19-h20-p19------17------19-h20--19------19------19--20p19 17------|
----------------------------------------19------------ -- --------|
------------------------------------------------------ -- --------|
------------------------------------------------------ -- --------|
------------------------------------------------------ -- --------|




15------------------------------|
--------------------------------|
16------------------------------|
--------------------------------|
--------------------------------|
--------------------------------|



14^---------------------r-------------------------------14--15--|
15^---------------------r-------15------------------------------|
----------------------------------------------------------------|
----------------------------------------------------------------|
----------------------------------------------------------------|
----------------------------------------------------------------|

                ___3____

17--15--14--15--14h15p14  ----14---------------- -- --------------------|
--------------------      17------17--17--14--15p14 16--14--------------|
--------------------      ---------------------- -- --------16--14-s12--|
--------------------      ---------------------- -- --------------------|
--------------------      ---------------------- -- --------------------|
--------------------      ---------------------- -- --------------------|



--------------------------------|
--------------------------------|
14-p12------12------------------|
--------16------16--14--12------|
----------------------------16--|
--------------------------------|



--------------------------------------------------------17------|
------------------------------------------------17-s15------15-s|
----------------------------------------------------------------|
12-h14----------------------------------------------------------|
----------------------------------------------------------------|
----------------------------------------------------------------|



----15----------14----------12----------10----------7-----------|
14------14-s12------12-s10------10-s8-------8-s-7-------7-------|
------------------------------------------------------------7---|
----------------------------------------------------------------|
----------------------------------------------------------------|
----------------------------------------------------------------|



--------------------------------|
--------------------------------|
----7---9-----9s11------9-------|
9-------------~-----------------|
--------------------------------|
--------------------------------|



----------------------------------------------------------------|
----------------------------------------------------------------|
9---------------------------------------9---9---9-------9-------|
----------------------------------------------------------------|
----------------------------------------------------------------|
----------------------------------------------------------------|



------------------------------------------------5---------------|
----------------------------------------------------------------|
9-------7-------------------------------6-----------------------|
----------------5--------------/7----------------------/5-------|
----------------------------------------------------------------|
----------------------------------------------------------------|



--------3-----------------------|
--------------------------------|
4-----------------------6-------| Now go back and play verse 2.
---------------/7---------------|
--------------------------------|
--------------------------------|


CODA


----------------|--------------------------------|
----------------|--------------------------------|
_3_-------------|--------------------5s4-----5---|
020-------------|------------5s4-----5s4-----5---|
----3-2---------|------------5s4-----3s2-----3---|
--------5-3-2-3-|0-------x-x-3s2-x-x-----x-x-----|




--------------------------------|----------------|----------
--------------------------------|----------------|----------
4-------------------------------|_3_-------------|----------
4-------------------------------|020-------------|2---------
2-------------------------------|----3-2---------|2---------
--------------------------------|--------5-3-2-3-|0---------


This last E chord lasts rather long for Metallica, while the song
doubles its tempo and the lyrics go "Just leave me alone".
Then you make a pick slide down the neck and you go:


----------------|----------------|----------------|----------------|
----------------|----------------|----------------|----------------|
----------------|----------------|----------------|----------------|
----------------|----------------|----------------|----------------|
----------------|----------------|----------------|----------------|
0-0-0-0-0-0-0-0-|0-0-0-0-0-0-0-0-|0-0-0-0-0-0-0-0-|0-0-0-0-0-0-0-0-|



----------------|----------------|----------------|----------------|
----------------|----------------|----------------|----------------|
----------------|----------------|----------------|----------------|
0h2---0h2-------|----------------|0h1---0h1---0h1-|--0h2-----------|
0h2---0h2-------|----------------|0h1---0h1---0h1-|--0h2-----------|
----------0-0-0-|0-0-0-0-0-0-0-0-|----------------|------0-0-0-0-0-|


Rhy. Fig. 2                                         (end Rhy.Fig. 2)

----------------|----------------|----------------|----------------| 
----------------|----------------|----------------|----------------| Repeat
----------------|----------------|----------------|----------------| this
0h1---0h1-------|----------------|0h1---0h1---0h1-|--0h2-----------| line
0h1---0h1-------|----------------|0h1---0h1---0h1-|--0h2-----------| 3 times
----------0-0-0-|0-0-0-0-0-0-0-0-|----------------|------0-0-0-0-0-|





             Fear of living on               Natives getting rest-

--------------------------------|--------------------------------|
--------------------------------|--------------------------------|
--------------------------------|------7-7-----------------------|
0-2---2-2-----------------------|0-2---7-7-----------------------|
0-2---2-2-----------------------|0-2---5-5-----------------------|
------0-0-----------------------|--------------------------------|


less now       mutiny in the air              got some death to do

--------------------------------|--------------------------------|
--------------------------------|--------------------------------|
--------------------------------|------5-5-------------4-4-------|
0-2---3-3-----------------------|0-2---5-5-------5-4---4-4-------|
0-2---3-3-----------------------|0-2---3-3-------3-2---2-2-------|
------1-1-----------------------|--------------------------------|


         Mirror stares back hard        "Kill" it's such a friend-

--------------------------------|--------------------------------|
--------------------------------|--------------------------------|
--------------------------------|------7-7-----------------------|
0-2---2-2-----------------------|0-2---7-7-----------------------|
0-2---2-2-----------------------|0-2---5-5-----------------------|
------0-0-----------------------|--------------------------------|


ly word       Seems the only way            for reaching out again

--------------------------------|--------------------------------|
--------------------------------|--------------------------------|
--------------------------------|------5-5-------------4-4-------|
0-2---3-3-----------------------|0-2---5-5-------5-4---4-4-------|
0-2---3-3-----------------------|0-2---3-3-------3-2---2-2-------|
------1-1-----------------------|--------------------------------|



--------------------------------|
--------------------------------|
--------------------------------|
--------------------------------|
--------------------------------|
0-0-0-0-0-0-0-0-0-0-0-0-12\-----|


Now we have another solo played over Rhy. Fig. 2 (4 times)


----------------------------------------------------------------|
----------------------------------------------------------------|
12--12--12--12--12--12--12--12--12--12--12--12--12--12--12--12--|
----------------------------------------------------------------|
----------------------------------------------------------------|
----------------------------------------------------------------|



----------------------------------------------------------------|
----------------------------------------------------------------|
16--12--12--12--12--12--12--12--12--12--12--12--12--12--12--12--|
----------------------------------------------------------------|
----------------------------------------------------------------|
----------------------------------------------------------------|



------------------------------------------------------------12--|
--------------------------------13--12--12--12--15--12--12------|
14--12--12--12--16--12--12--12----------------------------------|
----------------------------------------------------------------|
----------------------------------------------------------------|
----------------------------------------------------------------|


                ______3_______

13--12--12--12--15----12----12--17\---------------------12------|
-----------------------------------------------/12--------------|
----------------------------------------------------------------|
----------------------------------------------------------------|
----------------------------------------------------------------|
----------------------------------------------------------------|



17-p15-p12--------------12------17-p15-p12----------------------|
----------------17-p15--------------------------17-p15-p12------|
----------------------------------------------------------------|
----------------------------------------------------------------|
----------------------------------------------------------------|
----------------------------------------------------------------|



17-p15-p12--------------12------17-p15-p12--------------12------|
----------------17-p15--------------------------15-p12----------|
----------------------------------------------------------------|
----------------------------------------------------------------|
----------------------------------------------------------------|
----------------------------------------------------------------|


                                                ______3_______

17^---------------------r-------^---------------------17----15--|
------------------------------------------------17--------------|
----------------------------------------------------------------|
----------------------------------------------------------------|
----------------------------------------------------------------|
----------------------------------------------------------------|



14--------------14----------------------------------------------|
--------15--------------15--------------------------------------|
------------------------------------------------2---------------|
--------------------------------------------------------4-------|
----------------------------------------------------------------|
----------------------------------------------------------------|



----------------------------------------------------------------|
----------------------------------------------------------------|
----------------4-------2---------------2-------4---2-----------|
4^------------------------------4-----------------------4-------|
----------------------------------------------------------------|
----------------------------------------------------------------|



----------------------------------------------------------------|
----------------------------------------------------------------|
--------------------------------------------------------4-------|
3-------2---------------2^--------------------------------------|
----------------5-----------------------------------------------|
----------------------------------------------------------------|



----------------------------------------------------------------|
----------------5-----------------------5---------------5-------|
7^----------------------7^----------------------7^--------------|
----------------------------------------------------------------|
----------------------------------------------------------------|
----------------------------------------------------------------|



----------------------------------------------------------------|
--------5---------------5-------------------------------12------|
7^--------------7^--------------7\--------------14--------------|
----------------------------------------------------------------|
----------------------------------------------------------------|
----------------------------------------------------------------|


____________3__________         ___________3___________

--------------------------------15^--------15--------14---------|
15^--------15--------12-----------------------------------------|
----------------------------------------------------------------|
----------------------------------------------------------------|
----------------------------------------------------------------|
----------------------------------------------------------------|


____________3__________

12-------------------12-----------------------------------------|
-----------15-------------------15^---------------------17--17--|
----------------------------------------------------------------|
----------------------------------------------------------------|
----------------------------------------------------------------|
----------------------------------------------------------------|



15----------15--17--15------15--19--17-(15)--s--21------19--22--|
----17--18--------------19--------------------------------------|
----------------------------------------------------------------|
----------------------------------------------------------------|
----------------------------------------------------------------|
----------------------------------------------------------------|



22--19------22--22^-------------22^-----------------------------|
--------x-------------------------------------------------------|
-------------------------------------------End of solo 3--------|
----------------------------------------------------------------|
----------------------------------------------------------------|
----------------------------------------------------------------|




--------------------------------|--------------------------------|
--------------------------------|--------------------------------|
--------------------R-----------|------7-7-------7---R-----------|
0-2---2-2-------2---E|-----------|0-2---7-7-------7---E|-----------|
0-2---2-2-------2---S-----------|0-2---5-5-------5---S-----------|
------0-0-------0---T-----------|--------------------T-----------|



For the next part of the song there are 4 guitars playing from time
to time. We are going to use the following:

Rhy. Fig. 3

--------------------------------|--------------------------------|
--------------------------------|--------------------------------|
--------------------------------|------7-7-----------------------|
0-2---2-2-----------------------|0-2---7-7-----------------------|
0-2---2-2-----------------------|0-2---5-5-----------------------|
------0-0-----------------------|--------------------------------|


                                                 (end Rhy. Fig. 3)

--------------------------------|--------------------------------|
--------------------------------|--------------------------------|
--------------------------------|------5-5-------------4-4-------|
0-2---3-3-----------------------|0-2---5-5-------5-4---4-4-------|
0-2---3-3-----------------------|0-2---3-3-------3-2---2-2-------|
------1-1-----------------------|--------------------------------|


Riff 1

--------------------------------|--------------------------------|
--------------------------------|--------------------------------|
--------------------------------|2---------------2-2-2-----2-----|
(5)-------------5-5-5-4---5-----|----------------------5---------|
(7)-------------7-7-7-6---7-----|9---------------9-9-9-7---9-----|
--------------------------------|--------------------------------|


                                                      (end Riff 1)

--------------------------------|--------------------------------|
--------------------------+-----|--------------------------------|
----4-5---------5-5-5-7---5-----|--------------------------4-----|
5-----------------------------5-|----------------4-4-4-5-------5-|
10--9-8---------8-8-8-10--8---7-|----------------6-6-6-7---9---7-|
--------------------------+-----|--------------------------------|


Until the end of solo 4 one guitar plays Rhy. Fig. 3, another one
plays the following line...


--------------------------------|--------------------------------|
--------------------------------|--------------------------------|
--------------------------------|--------------------------------|
--------------------------------|--------------------------------|
------------5-s-7-7-7-5---7-----|9---------------9-9-9-7---9-----|
--------------------------------|--------------------------------|



--------------------------------|--------------------------------|
--------------------------------|--------------------------------|
--------------------------------|--------------------------------|
--------------------------------|--------------------------------|
10--9-8---------8-8-8-10--8---7-|----------------6-6-6-7---9-----|
--------------------------+-----|--------------------------------|



--------------------------------|--------------------------------|
--------------------------------|--------------------------------|
--------------------------------|--------------------------------|
--------------------------------|--------------------------------|
7---------------7-7-7-5---7-----|9---------------9-9-9-7---9---9-|
--------------------------------|--------------------------------|



--------------------------------|--------------------------------|
--------------------------------|--------------------------------|
--------------------------------|--------------------------------|
--------------------------------|------------------------------5-|
10--9-8---------8-8-8-10--8---7-|----------------6-6-6-7---9---7-|
--------------------------+-----|--------------------------------|


This last note on 5th fret of D string belongs to another guitar
whose line is tabbed in the upper part of Riff 1. All three
guitars play together Rhy. Fig. 3 and Riff 1 for 2 times, and then
continue for 2 times under the following solo 4.


 ----------------------------------------------------------------|
 ----------------------------------------------------------------|
 ----------------------------------------------------------------|
 ----------------------------------------------------------------|
 -------------------------------7---7---7---6-------7------------|
/7---------------------------------------------------------------|



----------------------------------------------------------------|
----------------------------------------------------------------|
----------------------------------------------------------------|
----------------------------------------------------------------|
9-------10--12------------------12--12--12--10------12----------|
----------------------------------------------------------------|



----------------------------------------------------------------|
----------------------------------------------------------------|
--------12--------------12------14^---------14^---------14^-----|
------------14------14------------------------------------------|
12-s14----------------------------------------------------------|
----------------------------------------------------------------|



----------------------------------------------------------------|
--------------------------------12----------12------------------|
12------------------------------12----------12------------------|
----14------------------14--14------14--14--------------14--14--|
----------------------------------------------------------------|
----------------------------------------------------------------|



----------------------------------------------------------------|
12----------12------------------__3___------------------12------|
12----------12----------12--14--14^r12--14--14------14----------|
----14--14----------14------------------------------------------|
----------------------------------------------------------------|
----------------------------------------------------------------|


                                                        ___3____

----12----------------------12--15^---------r-----------12h15p12|
--------12--15^---------15--------------------------------------|
14^-------------------------------------------------------------|
----------------------------------------------------------------|
----------------------------------------------------------------|
----------------------------------------------------------------|


___3____

15p12h15-------------------------------- ------------ ------------|
--------12------------------------------ ------------ ------------|
------------14--12------12--14^-r----p12 14--14^-rp12 14--14^-rp12|
--------------------14------------------ ------------ ------------|
---------------------------------------- ------------ ------------|
---------------------------------------- ------------ ------------|



----------------------------------------------------------------|
----------------------------------------------------------------|
14--14^-rp1214--14^-------------11--11--11--12------14---s--16--|
----------------------------------------------------------------|
----------------------------------------------------------------|
----------------------------------------------------------------|



----------------------------------------------------------------|
12-----s----17--17----------------------------------------------|
----------------------------------------------------------------|
------------------------------------End of solo 4---------------|
----------------------------------------------------------------|
----------------------------------------------------------------|


Together with the note on 12th fret of B string the backing guitars
go as follows until the end of the song.


--------------------------------|--------------------------------|
--------------------------------|--------------------------------|
--------------------------------|------7-7-----------------------|
0-2---2-2-----------------------|0-2---7-7-----------------------|
0-2---2-2--------------(8)\-----|0-2---5-5--------------(8)\-----|
------0-0--------------(6)\-----|-----------------------(6)\-----|



--------------------------------|--------------------------------|
--------------------------------|--------------------------------|
--------------------------------|------5-5-------------4-4-------|
0-2---3-3-----------------------|0-2---5-5-------5-4---4-4-------|
0-2---3-3--------------(8)\-----|0-2---3-3-------3-2---2-2-------|
------1-1--------------(6)\-----|--------------------------------|



--------------------------------|--------------------------------|
--------------------------------|----------------___3___---------|
----------------___3___---------|------7-7-------7--7--7-7-------|
0-2---2-2-------2--2--2-2-------|0-2---7-7-------7--7--7-7-------|
0-2---2-2-------2--2--2-2-------|0-2---5-5-------5--5--5-5-------|
------0-0-------0--0--0-0-------|--------------------------------|



--------------------------------|--------------------------------|
--------------------------------|----------------___3___---------|
----------------___3___---------|------5-5-------4--4--4-4-------|
0-2---3-3-------3--3--3-3-------|0-2---5-5-------4--4--4-4-------|
0-2---3-3-------3--3--3-3-------|0-2---3-3-------2--2--2-2-------|
------1-1-------1--1--1-1-------|--------------------------------|



--------------------------------|--------------------------------|
___3___---------___3___---------|--------------------------------|
4--4--4-4-------4--4--4-4-------|4-------2-----------------------|
4--4--4-4-------4--4--4-4-------|4-------2-------5-------4-------|
2--2--2-2-------2--2--2-2-------|2-------0-------5-------4-------|
--------------------------------|----------------3-------2-------|



--------------------------------|--------------------------------|----
--------------------------------|--------------------------------|----
--------------------------------|--------------------------------|----
2-------------------------------|--------------------------------|2\--
2-------------------------------|--------------------------------|2\--
0-------------------------------|--------------------------------|0\--
Texto Colunas
Alterar tom ½ tom ½ tom
afinação acordes na letra esconder tabs mais »

Comentários 32

  • thiago3 thiago3: Postado em 22/08/2014 18:12

    Vídeo aula por favooor!!!

  • sb333 sb333: Postado em 15/08/2014 16:56

    é meso preciso video aula, já muita gente pediu e nos precisamos mesmo vá lá cifra club... sei que dá algum trabalho e que outras coisas par

  • guilherme.josedarosa guilherme.josedarosa: Postado em 28/06/2014 16:05

    Video Aula, pq assim ta tenso de tirar.

  • Anderson Anderson: Postado em 18/06/2014 23:23

    Video Aula por favooooor

  • Rafael Rafael: Postado em 10/06/2014 21:00

    video-aula

  • Rafael Rafael: Postado em 31/05/2014 20:11

    video aula

  • Pedro Pedro: Postado em 10/02/2014 01:43

    Po nem precisa de video aula eu tirei tranquilo, mas recomendo melhorar um pouco a Tab, ;). Obrigado.

  • Daniel Daniel: Postado em 02/01/2014 21:59

    Video aula por favor a intro tá de boa mais o resto ....

  • eduardoa.fernandes.18 eduardoa.fernandes.18: Postado em 10/11/2013 17:35

    muito facil éssa música, nem precisa d videoaula

  • pol.neg pol.neg: Postado em 01/09/2013 10:16

    Video Aula !!!! Please T.T

Exibindo 10 de 32 comentários Mostrar mais ver todos »
Composição: James Hetfield / Jim Steinman / Kirk Hammett / Lars Ulrich / Lee Adams / Paulinho Da Viola / Vince Melamed
Esse não é o compositor? Avise-nos.
Contribuição: José Correções: Rico »
  1. Domingo de Manhã - Marcos e Belutti Manteve-se 98.258 exibições
  2. Até Você Voltar - Henrique e Juliano Manteve-se 53.974 exibições
  3. Pra Você - Onze:20 Manteve-se 50.133 exibições
  4. Recaídas - Henrique e Juliano Manteve-se 41.598 exibições
  5. Logo Eu - Jorge e Mateus Manteve-se 40.596 exibições
  6. Evidências - Chitãozinho & Xororó Manteve-se 37.100 exibições
  7. Só Os Loucos Sabem - Charlie Brown Jr. Manteve-se 31.698 exibições
  8. Give Me Love - Ed Sheeran Manteve-se 30.072 exibições
  9. Cuida Bem Dela - Henrique e Juliano Manteve-se 29.719 exibições
  10. Pais e Filhos - Legião Urbana Manteve-se 29.263 exibições
  1. Jorge e Mateus- Manteve-se 252.870 exibições
  2. Legião Urbana- Manteve-se 210.599 exibições
  3. Henrique e Juliano- Manteve-se 188.337 exibições
  4. Charlie Brown Jr.- Manteve-se 151.539 exibições
  5. Bruno e Marrone- Manteve-se 138.471 exibições
  6. Marcos e Belutti- Manteve-se 120.396 exibições
  7. Fernandinho- Manteve-se 119.285 exibições
  8. Luan Santana- Manteve-se 108.496 exibições
  9. Thalles Roberto- Manteve-se 94.265 exibições
  10. Victor e Leo- Manteve-se 92.036 exibições
Exibir acordes »

Cifras e tabs

Fórum Cifra Club

Aprenda

Cifra Club News

Mais Serviços Cifra Club ID

Studio Sol

©1996 - 2014 Cifra Club · o primeiro, maior e mais acessado do Brasil · 337 mil músicas · 6.2 milhões pessoas cadastradas

publicidade
fechar