Muros

Oficina G3

 Oficina G3
Tom: C
		
Riff 1:

E|-------------------------------------------------------------------------------|
B|-------------------------------------------------------------------------------|
G|-------------------------------------------------------------------------------|
D|-7-6------------5---------7-6-------------4--------7-6------------4------------|
A|-------3--3-5-6-----6-5-------3-3-5-6----6-5-------3-3-5-6-----5---------------|
E|-------------------------------------------------------------------------------|



E|-----------------------------------------------|
B|-----------------------------------------------|
G|-5-5-5-5----6-6-6-----5-5-5-5----3-3-3---------|
D|-----------------------------------------------|
A|-5-5-5-5----6-6-6-----5-5-5-5----3-3-3---------|  (2x)
E|-----------------------------------------------|


( D  F  C  Bb  A  G  F  E )

Dm                          F     C
Muros de pedra, muros de orgulho
Bb                            Am     ( G  E )
Que nos separam, e nos envergonham
Dm        F         C       Bb     Am     ( G  E )
Muitos já caíram, outros ressurgiram

Riff 1:

E|-------------------------------------------------------------------------------|
B|-------------------------------------------------------------------------------|
G|-------------------------------------------------------------------------------|
D|-7-6------------5---------7-6-------------4--------7-6------------4------------|
A|-------3--3-5-6-----6-5-------3-3-5-6----6-5-------3-3-5-6-----5---------------|
E|-------------------------------------------------------------------------------|


Dm                        F               C
Muitos preconceitos, muitos já desfeitos
Bb                      Am     ( G  E )
Muitos insistem em existir
Dm                  F                C  Bb
Oculto em nossos dias, há uma guerra fria
Am
Vitimas que ninguém vê

     C-C#           C-Bb
Caiam os muros, tirem as pedras
    C-C#            C-Bb
Nossa unidade não e real
     C-C#           C-Bb
Se a verdade e o que pregamos
    C-C#            C-Bb
Porque erramos não sendo um?

(Riff 1)

Dm     F     C           Bb                Am    ( G   E )
Muitos se defendem, escondem a fraqueza
Dm            F
Atrás de mentiras
         C         Bb                    Am
Que encobrem quem realmente são
              Dm
Muros que nos envergonham


E|-----------------------------------------------|
B|-----------------------------------------------|
G|-5-5-5-5----6-6-6-----5-5-5-5----3-3-3---------|
D|-----------------------------------------------|
A|-5-5-5-5----6-6-6-----5-5-5-5----3-3-3---------| (2x)
E|-----------------------------------------------|


     C-C#           C-Bb
Caiam os muros, tirem as pedras
    C-C#            C-Bb
Nossa unidade não e real
     C-C#           C-Bb
Se a verdade e o que pregamos
    C-C#            C       --------segura nota C
Porque erramos não sendo um?

  ( G#   G   F )

E|-----------------------------------------------|
B|-----------------------------------------------|
G|-5-5-5-5----6-6-6-----5-5-5-5----3-3-3---------|
D|-----------------------------------------------|
A|-5-5-5-5----6-6-6-----5-5-5-5----3-3-3---------|  (2x)
E|-----------------------------------------------|


( G#   G   F )


E|-----------------------------------------------|
B|-----------------------------------------------|
G|-3-3-3-3---4-4-4------3-3-3-3----4-4-4---------|
D|-----------------------------------------------|
A|-3-3-3-3---4-4-4------3-3-3-3----4-4-4---------|
E|-----------------------------------------------|


( G  Bb  G  C )

Solo de teclado: Am  G#

Intro de guitarra p/ solo:


E|--------------------------------------|
B|--------------------------------------|
G|--------------------------------------|
D|--------------------------------------|
A|-7---7-7----7-7--------6---6-6----6-7-|
E|--8-8-8-8--8-8-8--5-8---8-8-8-8--8-8--|


Solo de guitarra: C

Caiam os muros, tirem as pedras...
C|-C#               C-Bb
Ninguém pode se esconder de Deus

Comentários 2

  • Eliel Eliel: Postado em 23/09/2014 19:54

    vídeo aula galeraa pffffffffffff

  • lukinhaah12 lukinhaah12: Postado em 23/12/2011 21:31

    uuuuhhhuuuu muito legal essa musica

Composição: Juninho Afram / Jean Carllos / Duca Tambasco
Esse não é o compositor? Avise-nos.
Contribuição: Allinson Correções: bbbfelipesousa , Jânio e mais 2 »
Exibir acordes »
publicidade
fechar