Pink Floyd

Mother

279.645 exibições
Tom: G
G                                     C   C   G
Mother do you think they'll drop the bomb?
G                                     C   C   G
Mother do you think they'll like the song?
C                                            G   G
Mother do you think they'll try to break my balls?
D    C                            G   G
Oooh-ah, mother should I build a wall?

G                             C   C    G
Mother should I run for president?
G                                C   C   G
Mother should I trust the government?
C                                      G   G
Mother will they put me in the firing line?
D    C                          G   G
Oooh-ah, is it just a waste of time?

Interlúdio:
G                               C
Hush now baby, baby don't you cry.
F                              C
Mama's gonna make all of your nightmares come true.
F                            C
Mama's gonna put all of her fears into you.
F                                C
Mama's gonna keep you right here under her wing.
F                              C
She won't let you fly but she might let you sing.
F                                G
Mama's gonna keep baby cosy and warm.

Refrão:
D     C
Oooh babe,
D     C
Oooh babe,
D          C                                     G
  Ooh babe, of course mama's gonna help build a wall.
Solo:

       G                      C                      G               C
E|----------------------------------------------------------------------------------
B|------13b(15)---13b(15)r13-12h13--------------------------------------------------
G|---12-----------------------------------------------------------------------------
D|--------------------------------14p13-14~--------5p4--5p4-------------------------
A|---------------------------------------------5\7---------5~--3p2-3---3\5-3~-------
E|----------------------------------------------------------------------------------


              G                        C                 G                C
E|----------------------------------------------------------------------------------
B|--------10p8-10b(12)--10b(12)-10b(12)-(12)r10p8-8/13------------------------------
G|---2/7----------------------------------------------------------------------------
D|----------------------------------------------------14p13-14~---------------------
A|----------------------------------------------------------------------------------
E|----------------------------------------------------------------------------------


              G
E|-----12b(14)-(14)r12p10~--10b(12)-(12)r10p8~--8/7-8p7----------------------------
B|---10--------------------8---------------------------8---------------------------
G|--------------------------------------------------------7/5/4--------------------
D|---------------------------------------------------------------5-----------------
A|---------------------------------------------------------------------------------
E|---------------------------------------------------------------------------------


G                                C   C         G   G
Mother do you think she's good enough     for me?
G                               C   C        G   G
Mother do you think she's dangerous      to me?
C                                      G   G
Mother will she tear your little boy apart?
D    C                             G   G
Oooh-ah, mother will she break my heart?

Interlúdio:
G                               C
Hush now baby, baby don't you cry.
F                                C
Mama's gonna check out all your girlfriends for you.
F                      C
Mama won't let anyone dirty get through.
F                       C
Mama's gonna wait up untill you get in.
F                     C
Mama will always find out where you've been.
F                       C            G
Mama's gonna keep baby healthy and clean.

Refrão:
D     C
Oooh babe,
D     C
Oooh babe,
D          C                          G   G
  Ooh babe, you'll always be baby to me.

G                            C
Mother did it need to be so high?
    Composição: Roger WatersColaboração e revisão:
    • Marlos Augustus
    • Floyd N Roses

    Comentários 28

    140 .
    • Victor Victor: Em 18/06/2015 09:04

      Eu nao consigo ouvir esse solo sem chorar

    • kvnol kvnol: Em 06/03/2014 21:08

      O ritmo dá pra pegar fácil conhecendo a música.

    • Lucas Lucas: Em 28/02/2014 15:08

      Fácil.

    • marcus_medeiros marcus_medeiros: Em 28/10/2013 04:44

      na 2ª tab do solo, os 2 primeiros bends 10b(12) são ligados por release, tem uma palhetada só na 1ª nota e dps qnd alcançar 1 tom no 2º bend

    • tomaz.augusto.39 tomaz.augusto.39: Em 16/07/2013 13:29

      qual é o ritmo da música?

    • Diego Diego: Em 30/05/2013 10:19

      ta em outro tom, quando eu tento toca com a música ta completamente diferente

    • raul13felipe raul13felipe: Em 16/05/2013 22:56

      a base do solo aí ta errado na ultima parte onde é D, C e G e concordo sobre utilizar o C/G em vez do C nos acordes cantados

    • carlos carlos: Em 07/05/2013 13:52

      galera o solo é esse mesmo, so esses bends ali na primeira corda ta esquisito, a solucao é segurar um pouco o bend ai fica bom, flws

    • carlosmax carlosmax: Em 25/03/2013 16:21

      Essa batida é muito diferente, só tocando com a música pra pegar.

    • luan.scussel luan.scussel: Em 21/02/2013 11:29

      Não precisa de ritmo explicado é só sentir a musica hehe só o solo ta meio estranho

      • Jullian Jullian: Em 27/08/2013 10:51

        Entãao, huahua'', sóo sentiir..,'

    Exibindo 11 de 28 comentários Mostrar mais ver todos »
    140 cancelar

    conseguiu tocar?

    • Ricardo
    • Janir
    • fabianoteodoro
    • lucas.win
    • Matheus
    • Maria_Vitória
    • Haron
    • •••
    DINHO DE SOUZA2.378 visualizações
      ver covers de outras músicas »
      0:00 / 0:00

      Capítulos

        1 versão de baixo exibições contribuição e correção
        1 versão de bateria exibições contribuição e correção
        3 versões de Guitar Proformatodownloadscontribuição
        play/pausefechar subir/descer velocidade
        6ª corda E5ª corda A4ª corda D3ª corda G2ª corda B1ª corda E
          acordes
          publicidad
          fechar
          ok