Tom: D
		

Intro: D  A/C#  Bm  G  D  A
E|--0--2-2-----5----3--2--0--2--2---------
B|----------3-----------------------------
G|----------------------------------------
D|----------------------------------------
A|----------------------------------------
E|----------------------------------------



E|--2--2---3---5--5---7------7--5------5--3---2---2---1----2--3--1--
B|-----------------------3----------3--------------------3----------
G|------------------------------------------------------------------
D|------------------------------------------------------------------
A|------------------------------------------------------------------
E|------------------------------------------------------------------


D      A/C#           Bm               G          D/F#             A        G
Usa-me quero ser um vaso,  um vaso de barro e transbordar da tua unção.
D            A/C#    Bm               G          D/F#           A        D7
Ó leva-me a sala do trono e me prostando aos seus pés pra ti adorar

             G                         A
Eu quero estar a sós com Deus e me humilhar
          F#m    F#          Bm
No tempo certo Deus me exaltara
     Em7              A           G           D7
Me colocará de pé e então minha visão o alcançará
         G               A
Todo o bem que tens pra mim
         F#m    F#      Bm
Todos os sonhos a realizar
     Em7              A
Jesus tu és meu bem maior
            G    D/F#    Em7    D
Te amo te louvo te exalto  

D      A/C#           Bm               G          D/F#             A        G
Usa-me quero ser um vaso,  um vaso de barro e transbordar da tua unção.
D            A/C#    Bm               G          D/F#           A        D7
Ó leva-me a sala do trono e me prostando aos seus pés pra ti adorar

             G                         A
Eu quero estar a sós com Deus e me humilhar
          F#m    F#          Bm
No tempo certo Deus me exaltara
     Em7              A           G           D7
Me colocará de pé e então minha visão o alcançará
         G              A
Todo o bem que tens pra mim
         F#m    F#      Bm
Todos os sonhos a realizar
     Em7              A
Jesus tu és meu bem maior
            G    D/F#    Em7    D
Te amo te louvo te exalto
6.606 exibições

Comentários 0

Composição: Sabe quem é o compositor? Envie pra gente. Contribuição: Nando
Consegui tocarAinda não conseguiram tocar essa música. Seja o primeiro!
    Não consegui tocar
    Exibir acordes »
    publicidade
    fechar