Tião Carreiro e Pardinho

Amargurado

509.528 exibições
Tom: C

D|--3-1-0--------------------------------------------0-1-3-5-5-5-5--|
A|--------3-1----------------------------------------1-3-5-6-6-6-6--|
F#|-----------1-1-1-1-0-1-3-3-3-3-1---------------------------------|
D|------------1-1-1-1-0-1-3-3-3-3-1---------------------------------|
A|--------------------------------  5-3-5-5-------------------------|


D|--8-5-7-7-7-7-10/12-10-8---------------------8--|
A|--6-6-8-8-8-8--------------8--------------------|
F#|--------------------------------8-----8--------|
D|------------------------------------8-----------|
A|------------------------------------------------|


Solo para Violão:

Parte 1

E|-12-10--8-7-5-5--5--5--5--4--5­-5/7--7--7--5-3-1-1/3-3---|
B|-13-12-10-8-6-6--6--6--6--5--6­-6/8--8--8--6-5-3-3/5-5---|
D|--------------------------------------------------------|
A|--------------------------------------------------------|
E|--------------------------------------------------------|


Parte 2

E|---------5-------7-6-5--5-4-5--8-5-7-7--5-7--10/12-10-8-|
B|-5/8-7-8---8-7-8-------------­--------------------------­-|
D|--------------------------------------------------------|
A|--------------------------------------------------------|
E|--------------------------------------------------------|


Parte 3

E|---------------|
B|---/8----------|
G|------/9-------|
D|---------/10---|
A|---------------|
E|---------------|


C
O que é feito daqueles beijos que eu te dei
                                                           G
Daquele amor cheio de ilusão que foi a razão do nosso querer

Pra onde foram tantas promessas que me fizeste
            F                  G                 C
Não se importando que o nosso amor viesse a morrer

C
Talvez com outro estejas vivendo bem mais feliz
            C7                             F
Dizendo ainda que nunca houve amor entre nós
                          G                  C
Pois tu sonhavas com a riqueza que eu nunca tive
            Am            Dm              G                    C
E se ao meu lado muito sofreste, o meu desejo é que vivas melhor

         G             F               C
Vai com Deus, sejas feliz com o teu amado
                     G               F              C
Eis aqui um peito magoado que muito sofre por te amar
         F                              G
Eu só desejo que a boa sorte siga teus passos
                        F
Mas se tiveres algum fracasso
            G                 C
Creias que ainda te posso ajudar

       G             F               C
Vai com Deus, sejas feliz com o teu amado
                     G               F              C
Eis aqui um peito magoado que muito sofre por te amar
         F                              G
Eu só desejo que a boa sorte siga teus passos
                        F
Mas se tiveres algum fracasso
            G                 C
Creias que ainda te posso ajudar

Solo final:

D|--2-3-5-7-5-3-5-7-10-09-7-5-7-09-12-10----------10--|
A|--3-5-7-8-7-5-7-8-12-10-8-7-8-10-14-----10----------|
F#|---------------------------------------------10----|
D|--------------------------------------------10------|
A|----------------------------------------------------|
    Composição: Dino Franco / Tião CarreiroColaboração e revisão:
    • pfv
    • Laff
    • Bruno
    • gui262626
    • +3

    Comentários 7

    140 .
    • Tall DE Tall DE: Em 23/08/2015 - 13:27

      quais os ritmos melhores pra toca a musica algua dica

    • Meio kg Meio kg: Em 29/06/2015 20:17

      A original é em B+

    • bruno_r bruno_r: Em 09/01/2014 12:58

      VIDEOAULA Viola Caipira + Tablatura.

      watch?v=ITKMEm6TPGA

    • marianehecate marianehecate: Em 27/11/2012 15:10

      Ritimo?

      • jinkas jinkas: Em 23/12/2012 10:40

        Guarânia fica bom!! (O mesmo da Boate Azul)

    • orlandodm orlandodm: Em 28/08/2012 18:32

      Show de bola kk' :D

    • fernandogomes fernandogomes: Em 01/04/2011 21:00

      Classica *-*

    140 cancelar

    conseguiu tocar?

    • diogo_leal
    • Matheus
    • roger
    • Vanderson de Almeida Borges
    • vetguy
    • Paixao
    • isabellacristina.ribeiro.7
    • •••
    0:00 / 0:00

    Capítulos

      1 versão de violão dificuldade exibições contribuição e correção
      1 versão de guitarra dificuldade exibições contribuição e correção
      1 versão de cavaco dificuldade exibições contribuição e correção
      1 versão de teclado dificuldade exibições contribuição e correção
      1 versão de partiturasformatodownloadscontribuição
      play/pausefechar subir/descer velocidade
      6ª corda E5ª corda A4ª corda D3ª corda G2ª corda B1ª corda E
        acordes
        publicidad
        fechar
        ok