Cifra Club

Diz Mais Uma Vez

4Taste

Cifra: Principal (violão e guitarra)
Selo Cifra Club: esta cifra foi revisada para atender aos critérios oficiais da nossa Equipe de Qualidade.
tom: E
E|---------------------------------------------------------------------------------------|
Hey guys, here comes my first Chords with solo parts, so if you see mistakes, I am not 
a Pro and everything just of listening...
Anyway, have fun with this song
E|---------------------------------------------------------------------------------------|


[Intro]
First time clean

E|-----------------------------------------------| |--------------------------|
B|----------------7-7----------------------------| |--------------7-----------|
G|------89-9---89---------89-9-8h9-98------------| 2x |-----89-9---9------89-8---|
D|-(6)6------6-------(6)6-------------9----------| |--66------6-----66------9-|
A|-----------------------------------------------| |--------------------------|
E|-----------------------------------------------| |--------------------------|
*********************
()  just second time
h   hammer on
*********************
 
[Verse1]

E       B              C
 Toda a certeza que trago,
 Está tudo modado,
 Parcialmente enrolado.
 E        B                C#
 Cruzo os braços e paro um minuto.
E        B                 C#
 Sinto a alma imersa em ância
 Tenta emergir com relutância.
E          B                C# 
 Pena não ter plano de contingência.

[Bridge]

B        A
Deixa me estar,
B              A
Faz me bem não pensar,
B        A             B
Deixa me estar no meu lugar


[Chorus]

E
Diz mais,
             B
só mais uma vez mais,
                C#m
diz me porque vais,
B    A
não vás.
E
Diz mais,
             B
só mais uma vez mais,
               C#m
diz me porque vais,
B    A
não vás.

[Solo]
E|--------------------------------------------------------|
B|-------------7-----------------------------7------------|
G|-----89---89------89-8h9-98--------89---89------89-8----|
D|--66----6------66-----------9---66----6------66------9--|
A|--------------------------------------------------------|
E|--------------------------------------------------------|

{Guitar2}
E|----------------------------------|
B|----------------------------------|
G|---1---1---1---1---1---1---1-2-4--|
D|--2-2-2-2-2-2-2-2-2-2-2-2-2-2-2---|
A|-2---2---2---2---4---4---4--------|
E|----------------------------------|

[Verse2]

E          B
 Sem tormentos,
C#m
 olhei, esquecia,
 tudo o que perdi.
E        B     C#m
 Mas não o que senti.
E        B
 E por momentos,
    C#m
 pensei, julguei e até acreditei,
E             B           C#m
 que tivesse sido eu que errei.

[Bridge]

B        A
Deixa me estar,
B              A
Faz me bem não pensar,
B        A             B
Deixa me estar no meu lugar


[Chorus]

E
Diz mais,
             B
só mais uma vez mais,
                C#m
diz me porque vais,
B    A
não vás.
E
Diz mais,
             B
só mais uma vez mais,
               C#m
diz me porque vais,
B    A
não vás.

[Verse 3]

C#m                 B
 Quando a mágoa acentar
                 A
 e finalmente acabar.
                  B
 Tudo à sua forma vai voltar
C#m                B 
Quando a mágoa acentar
               A 
e finalmente acabar.
             B          
Tudo à sua forma vai voltar. 


[Chorus]
E
Diz mais,
             B
só mais uma vez mais,
                C#m
diz me porque vais,
B    A
não vás.
E
Diz mais,
             B
só mais uma vez mais,
               C#m
diz me porque vais,
B    A
não vás.
E
Diz mais,
             B
só mais uma vez mais,
               C#m
diz me porque vais,
B    A
não vás.
00:00 / 00:00
Outros vídeos desta música
Repetir
Outros vídeos desta música
160 exibições
    • ½ Tom
    • A
    • Bb
    • B
    • C
    • Db
    • D
    • Eb
    • E
    • F
    • F#
    • G
    • Ab
  • Adicionar à lista

Afinação da cifra

Afinador online

    0 comentários

    Ver todos os comentários

    Entre para o Cifra Club PRO

    Tenha acesso a benefícios exclusivos no App e no Site

    • Chega de anúncios

    • Mais recursos no app do Afinador

    • Atendimento Prioritário

    • Aumente seu limite de lista

    • Ajude a produzir mais conteúdo

    00:00 / 00:00

    Cifra Club Pro

    Aproveite o Cifra Club com benefícios exclusivos e sem anúncios
    Cifra Club Pro
    Aproveite o Cifra Club com benefícios exclusivos e sem anúncios
    OK