Cifra Club

Libera o Grito

4x1

Cifra: Principal (violão e guitarra)
Selo Cifra Club: esta cifra foi revisada para atender aos critérios oficiais da nossa Equipe de Qualidade.
tom: B
[Intro 4x] B/G#  B9  E

B          B/C#    B/E            B/A
Que os céus ouçam o canto da criança O grito da garganta
    B/G#    B/F#     B/E          B/C#    B/D#
Dos homens e mulheres que confessam ser um adorador
    B/E          F#
Professam ser um adorador
B                     F#                B/G#     B/E   B          F#
Que faz o que diz que vive o que faz no mastro da nação  ergue adoração

E|------------------|
B|------------------|
G|------------------|
D|-----2------------|
A|--4----6----------|
E|------------4-----|

            B/G#      B              B/E               F#
Liberta seu canto com voz de trombeta filhos de sião oh filhos de sião
         B9    C#M  E                B9   C#M   E              G#M
Libera o grito oo ooo      libera o grito o o ooo um grito de louvor
B9               E    C#M            F#            ( B/G# B9 B/E ) (2x)
Um grito de louvor   noiva cordeiro onde esta teu som
B                     F#
Que faz o que diz que vive o que faz
Noiva do cordeiro onde esta teu som?

 Solo: E  C#    G#M     B9   E   C#    G#M     B9   E   G#M
E|---------------------------------------------------------------------------------------------------|
B|---------------------------------------------------------------------------------------------------|
G|---3-3-3--4-4-4--6-6-6--3-3-3--4-4---6-6---(2x)----1-1-1-1-1-1-4-4-4-4-4-4---|
D|---------------------------------------------------------------------------------------------------|
A|---------------------------------------------------------------------------------------------------|
E|---------------------------------------------------------------------------------------------------|
00:00 / 00:00
Outros vídeos desta música
Repetir
Outros vídeos desta música
3.210 exibições
    • ½ Tom
    • A
    • Bb
    • B
    • C
    • Db
    • D
    • Eb
    • E
    • F
    • F#
    • G
    • Ab
  • Adicionar à lista

Afinação da cifra

Afinador online

    0 comentários

    Ver todos os comentários

    Entre para o Cifra Club PRO

    Tenha acesso a benefícios exclusivos no App e no Site

    • Chega de anúncios

    • Mais recursos no app do Afinador

    • Atendimento Prioritário

    • Aumente seu limite de lista

    • Ajude a produzir mais conteúdo

    00:00 / 00:00

    Cifra Club Pro

    Aproveite o Cifra Club com benefícios exclusivos e sem anúncios
    Cifra Club Pro
    Aproveite o Cifra Club com benefícios exclusivos e sem anúncios
    OK