Cifra Club

Amnesia

5 Seconds Of Summer

Cifra: Principal (violão e guitarra)
tom: D
[Intro] D

E|-------2-------2-------2h3--------------------------|
B|---3-------3-------3---------3---3------------------|
G|-2---2---2---2---0---0-----0---0--------------------| (2x)
D|----------------------------------------------------|
A|----------------------------------------------------|
E|----------------------------------------------------|

[Primeira Parte]

E|-------2-------2-------2h3--------------------------|
B|---3-------3-------3---------3---3------------------|
G|-2---2---2---2---0---0-----0---0--------------------| (2x)
D|----------------------------------------------------|
A|----------------------------------------------------|
E|----------------------------------------------------|

E|-------2-------2------------2-----------------------|
B|---3-------3--------3---3---------------------------|
G|------------------0---0---0-------------------------|
D|-2---2---2---4--------------------------------------|
A|----------------------------------------------------|
E|----------------------------------------------------|

    D
I drove by all the places we used to hang out getting wasted
    D
I thought about our last kiss, how it felt the way you tasted
    Em7
And even though your friends tell me you're doing fine
         D
Are you somewhere feeling lonely even though he's right beside you?
  D
When he says those words that hurt you, do you read the ones I Wrote you?

[Pré-Refrão]

     Em7
Sometimes I start to wonder, was it just a lie?
     Em7
If what we had was real, how could you be fine?
 D
Cause I'm not fine at all

[Refrão]

D                                        D/C#
I remember the day you told me you were leaving
     Bm                                   G
I remember the make-up running down your face
          D                                D/C#
And the dreams you left behind you didn't need them
     Bm                         G
Like every single wish we ever made

D                                   D/C#
I wish that I could wake up with amnesia
        Bm                           G
And forget about the stupid little things
 D                                   D/C#
Like the way it felt to fall asleep next to you
         Bm                     G
And the memories I never can escape

Cause I'm not fine at all

( D )

E|-------2-------2-------2h3--------------------------|
B|---3-------3-------3---------3---3------------------|
G|-2---2---2---2---0---0-----0---0--------------------| (2x)
D|----------------------------------------------------|
A|----------------------------------------------------|
E|----------------------------------------------------|

[Segunda Parte]

     D
The pictures that you sent me they're still living in my phone
  D
I admit I like to see them, I admit I feel alone
    Em7
And all my friends keep asking why I'm not around
    D
It hurts to know you're happy, yeah, it hurts that you've moved on
      D
It's hard to hear your name when I haven't seen you in so long

[Pré-Refrão]

      Em7
It's like we never happened, was it just a lie?
     Em7
If what we had was real, how could you be fine?

D
'Cause I'm not fine at all

[Refrão]

D                                        D/C#
I remember the day you told me you were leaving
     Bm                                   G
I remember the make-up running down your face
          D                                D/C#
And the dreams you left behind you didn't need them
     Bm                         G
Like every single wish we ever made

D                                   D/C#
I wish that I could wake up with amnesia
        Bm                           G
And forget about the stupid little things
 D                                   D/C#
Like the way it felt to fall asleep next to you
         Bm                     G
And the memories I never can escape

Cause I'm not fine at all

[Ponte]

If today I woke up with you right beside me
E|---------------|
B|--2--2---3--3--|
G|--2--2---4--4--|
D|--2--2---4--4--|
A|--0--0---2--2--|
E|---------------|

Like all of this was just some twisted dream
E|---------------|
B|--3--3---3--3--|
G|--0--0---2--2--|
D|--0--0---0--0--|
A|---------------|
E|--3--3---------|

I'd hold you closer than I ever did before
E|---------------|
B|--2--2---3--3--|
G|--2--2---4--4--|
D|--2--2---4--4--|
A|--0--0---2--2--|
E|---------------|

And you'd never slip away, and you'd never hear me say
E|---------------|
B|--3--3---3--3--|
G|--0--0---0--0--|
D|--0--0---0--0--|
A|---------------|
E|--3--3---3--3--|

D                                       D/C#
I remember the day you told me you were leaving
Bm                                      G
I remember the make-up running down your face
D                                  D/C#
And the dreams you left behind you didn?t need them
Bm                             G
Like every single wish we ever made
D                               D/C#
I wish that I could wake up with amnesia
Bm                                 G
And forget about the stupid little things
D                                   D/C#
Like the way it felt to fall asleep next to you
Bm                           G
And the memories I never can escape

Cause I'm not fine at all

E|-----------2-----------2-----------2h3----------------|
B|-----3-----------3-----------3-------------3-----3----|
G|--2-----2-----2-----2-----0-----0-------0-----0-------|
D|------------------------------------------------------|
A|------------------------------------------------------|
E|------------------------------------------------------|

I'm really not fine at all

E|-----------2-----------2-----------2h3----------------|
B|-----3-----------3-----------3-------------3-----3----|
G|--2-----2-----2-----2-----0-----0-------0-----0-------|
D|------------------------------------------------------|
A|------------------------------------------------------|
E|------------------------------------------------------|

Tell me this is just a dream

E|-----------2-----------2-----------2h3----------------|
B|-----3-----------3-----------3-------------3-----3----|
G|--2-----2-----2-----2-----0-----0-------0-----0-------|
D|------------------------------------------------------|
A|------------------------------------------------------|
E|------------------------------------------------------|
'Cause I'm really not fine at all

E|-----------2-----------2------------------------------|
B|-----3-----------3-----------3------------------------|
G|--2-----2-----2-----2-----0-----0---------------------|
D|------------------------------------------------------|
A|------------------------------------------------------|
E|------------------------------------------------------|

E|-------10---------------------------------------------|
B|--8---------------------------------------------------|
G|------------------------------------------------------|
D|------------------------------------------------------|
A|------------------------------------------------------|
E|------------------------------------------------------|
00:00 / 00:00
Outros vídeos desta música
Repetir
Outros vídeos desta música
Composição de Benjamin Madden / Joel Madden / Louis Biancaniello / Michael Biancaniello / Sam Watters
145.898 exibições
  • Simplificar cifra
    • ½ Tom
    • A
    • Bb
    • B
    • C
    • Db
    • D
    • Eb
    • E
    • F
    • F#
    • G
    • Ab
  • Adicionar à lista

    0 comentários

    Ver todos os comentários

    Conseguiu tocar?

    49 Tocaram 6 Ainda não

    Grave um vídeo tocando Amnesia e nos envie!

    Entre para oCifra Club PRO

    Tenha acesso a benefícios exclusivos no App e no Site

    • Chega de anúncios

    • Prioridade de compra em lançamentos

    • Mais recursos no app do Afinador

    • Atendimento Prioritário

    • Descontos nos produtos Cifra Club

    • Ajude a produzir mais conteúdo

    00:00 / 00:00

    Cifra Club Pro

    Aproveite o Cifra Club com benefícios exclusivos e sem anúncios
    Cifra Club Pro
    Aproveite o Cifra Club com benefícios exclusivos e sem anúncios
    OK