Cifra Club

Super Fantástico

A Turma do Balão Mágico

Cifra: Principal (violão e guitarra)
Selo Cifra Club: esta cifra foi revisada para atender aos critérios oficiais da nossa Equipe de Qualidade.
tom: Ab
[Intro] Ab  Bb  Eb  
        Eb/D  Cm  Bb
        Ab  Bb  Ab  Bb

[Primeira Parte]

 Eb
Super fantástico amigo
                  Cm
Que bom estar contigo no nosso balão

[Tab - Frase 1]

E|-----------------------------------|
B|-----------------------------------|
G|-----------------------------------|
D|-----------------------------------|
A|-3-5-6-----------------------------|
E|-----------------------------------|

 Fm
Vamos voar novamente
              Bb
Cantar alegremente mais uma canção

[Tab - Frase 2]

E|-----------------------------------|
B|-----------------------------------|
G|-----------------------------------|
D|-----------------------------------|
A|-1-3-1-----------------------------|
E|-----------------------------------|

 Eb
Tantas crianças já sabem
                Cm           (Frase 1)
Que todas elas cabem no nosso balão
Fm
Até quem tem mais idade
               Bb            (Frase 2)
Mas tem felicidade no seu coração

[Pré-Refrão]

 Ab    Bb              G     Cm
Sou feliz, por isso estou aqui
         Ab                  Bb
Também quero viajar nesse balão

[Refrão]

 Eb             Cm                 Gm
Super fantástico  no balão mágico
                       Bb
O mundo fica bem mais divertido
 Eb             Cm                 Gm
Super fantástico  no balão mágico
                       Bb
O mundo fica bem mais divertido

 Ab    Bb              G     Cm
Sou feliz, por isso estou aqui
         Ab                  Bb
Também quero viajar nesse balão

( Ab  Bb  Eb )
( Eb  Eb/D  Cm  Bb )
( Ab  Bb  Ab  Bb  C )

[Segunda Parte]

 F                    
Super fantasticamente 
               Dm
As músicas são asas da imaginação

[Tab - Frase 3]

E|-----------------------------------|
B|-----------------------------------|
G|------------------=----------------|
D|-----------------------------------|
A|-5-7-8-----------------------------|
E|-----------------------------------|

Gm                       
É como a flor e a semente
                  C                   
Cantar que faz a gente viver a emoção

[Tab - Frase 4]

E|-----------------------------------|
B|-----------------------------------|
G|-----------------------------------|
D|-----------------------------------|
A|-3-5-3-----------------------------|
E|-----------------------------------|

 F                  
Vamos fazer a cidade 
             Dm                  (Frase 3)
Virar felicidade com a nossa canção
 Gm                   
Vamos fazer essa gente 
            C                (Frase 4)
Voar alegremente no nosso balão

[Pré-Refrão]

 Bb    C               A     Dm  C
Sou feliz, por isso estou aqui
         Bb                  C
Também quero viajar nesse balão

[Refrão]

 F              Dm                 Am
Super fantástico  no balão mágico
                       C
O mundo fica bem mais divertido
 F              Dm                 Am
Super fantástico  no balão mágico
                       C
O mundo fica bem mais divertido

[Pré-Refrão]

 Bb    C               A     Dm  C
Sou feliz, por isso estou aqui
         Bb                  C
Também quero viajar nesse balão

[Refrão]

 F              Dm                Am
Super fantástico no balão mágico
                       C
O mundo fica bem mais divertido
 F              Dm                Am
Super fantástico no balão mágico
                       C
O mundo fica bem mais divertido

[Pré-Refrão]

 Bb    C               A     Dm  C
Sou feliz, por isso estou aqui
         Bb                  C
Também quero viajar nesse balão
               F
Super fantástico!
Outros vídeos desta música
937.756 exibições
  • Simplificar cifra
    • ½ Tom
    • A
    • Bb
    • B
    • C
    • Db
    • D
    • Eb
    • E
    • F
    • F#
    • G
    • Ab
  • Adicionar à lista

Afinação da cifra

Afinador online

    0 comentários

    Ver todos os comentários

    Entre para o Cifra Club PRO

    Tenha acesso a benefícios exclusivos no App e no Site

    • Chega de anúncios

    • Mais recursos no app do Afinador

    • Atendimento Prioritário

    • Aumente seu limite de lista

    • Ajude a produzir mais conteúdo

    Cifra Club Pro

    Aproveite o Cifra Club com benefícios exclusivos e sem anúncios
    Cifra Club Pro
    Aproveite o Cifra Club com benefícios exclusivos e sem anúncios
    OK