Cifra Club

Scream Of The Butterfly

Acid Bath

Cifra: Principal (violão e guitarra)
Selo Cifra Club: esta cifra foi revisada para atender aos critérios oficiais da nossa Equipe de Qualidade.
tom: Eb (forma dos acordes no tom de E) Afinação: Eb Ab Db Gb Bb Eb
[Intro]  Bm F#m

[Riff Inicial] 

   Bm
E|-------------------------------|
B|-------------------------------|
G|-------------------------------|
D|----4-0---2-0------------------|
A|--2-----2-----4-0-2------------|
E|-------------------------------|

   F#m
E|-------------------------------|
B|-------------------------------|
G|-------------------------------|
D|-------------------------------|
A|----4-0---2-0------------------|
E|--2-----2-----4-0-2------------|

[Solo Inicial] 

[Parte 1] 

E|----------------------------------------|
B|----------------------------------------|
G|----------------------------7-----------|
D|-7h9~~---7-9~---9---7-7h9-------9p7/4---|
A|----------------------------------------|
E|----------------------------------------|

[Parte 2] 

E|---------------------------------------------------|
B|---------------------------------------------------|
G|---------------------------------7-9b10| 10r9p7-----|
D|----------------7b-----------7h9----------------9--|
A|-7h9~~---7-9~------9---7-7h9~----------------------|
E|---------------------------------------------------|

[Parte 3] 

P.M                . . . .
E|-------------------------------|
B|-------------------------------|
G|----------------7-7------------|
D|-7h9~~---7-9~-------7-7-9p7~---|
A|-------------------------------|
E|-------------------------------|

[Parte 4] 

P.M
E|----------------------------------------|
B|----------------------------------------|
G|---------------------------7-9b10r9p7---|
D|---7---7-9-7-6-----7---7-9------------9-|
A|-9---9---------7-9---9------------------|
E|----------------------------------------|

[Parte 5] 

P.M                . . . .
E|-------------------------------|
B|-------------------------------|
G|----------------7-7------------|
D|-7h9~~---7-9~-------7-7-9p7~---|
A|-------------------------------|
E|-------------------------------|

[Parte 6] 

P.M
E|------------------------------------------|
B|------------------------------------------|
G|------------------------------------------|
D|---7---7-9-7-6-----7---7-9-7-6------------|
A|-9---9---------7-9---9---------7-9--------|
E|------------------------------------------|

[Início]

  Bm                        
A creature made of sunshine
    Bm
Her eyes were like the sky
Bm
Rabbit howls like something old
      Bm
As we twitch to her lullaby

    F#m
The scalpel shines in gods sunshine
 F#m
Street lights whisper pain
F#m
Down here near the poison stream
       F#m
You're god has gone insane

[Refrão] 

    Bm
She smiles like a child with flowers in her hair
     Bm
With blood on her hands into the sun she stares
    F#m             F#m
She feels it die, I heard her cry

Bm
She smiles like a child with flowers in her hair
     Bm
With blood on her hands into the sun she stares
    F#m             F#m
She feels it die, I heard her cry
F#m
Like the scream of the butterfly

[Parte 1]Guitarra:

   Bm
E|--2-----------2----------------|
B|--3-----------3----------------|
G|--4---------4------------------|
D|--4-------4--------------------|
A|--2-----2----------------------|
E|-------------------------------|

Parte 1 (Contrabaixo):

G|---------------------------2-----------|
D|----5-4------5-4------5-4----5-4-------|
A|--2-----5-2------5-2------5------5-----|
E|---------------------------------------|

[Primeira Parte] 

Bm
Sunshine a house in flames
Bm
She likes it where she gets it
But it's never felt the same

     Bm
Surgery in the house of dissection
Bm
When your candle burns out I will resurrect you

    Bm
She runs through fields of daisies
Bm
Yeah it's just a shame
That they eat their own babies

    Bm
Who cares cause the air is free
Bm
When you get there will you kiss the dead for me?

Riff Principal (Guitarra):

   Bm
E|----------------------0------|
B|----------3-----2-------3-2--|
G|------4----------------------|
D|--------4-----4-----4--------|
A|--2--------------------------|
E|-----------------------------|

   F#m
E|-----------------------------|
B|----------------------0------|
G|----------2-----1-------2-1--|
D|------4----------------------|
A|--------4-----4------4-------|
E|--2--------------------------|

Riff Principal (Contrabaixo):

   Bm
G|-----------------|
D|--------4---2----|
A|--2-------5---4--|
E|-----------------|

   F#m
G|-----------------|
D|-----------------|
A|--------4---2----|
E|--2-------5---4--|

Início da Estrofe:

There's blood on the moon
And the summer is cold
There's love in the room
But baby that's gettin' old
There's blood on my face
Sittin' on a dead shore
A highway of emptiness
And I'm feeling old

Bm    F#m   Bm    F#m
Aaah, Oooh, Aaah, Oooh

[Riff Principal]

[Solo] 

E|--14-14-14-14/12-12-12-12/10-10-10-10/9-9/10/9-9-9-9/10~-10-10-10-9h10p9-9-9----|
B|--------------------------------------------------------------------------------|
G|--------------------------------------------------------------------------------|
D|--------------------------------------------------------------------------------|
A|--------------------------------------------------------------------------------|
E|--------------------------------------------------------------------------------|

There's blood on the moon
As we plan our escape
The goddess in bloom
Handcuffed and raped
There's blood in the bath tub
Murder the king
There's blood on the moon
There's blood on just about everything

[Riff Principal]

Bm    F#m   Bm    F#m  B5
Aaah, Oooh, Aaah, Oooh

[Parte 2] 

[Guitarra] 

   Bm
E|--2-----------2----------------|
B|--3-----------3----------------|
G|--4---------4------------------|
D|--4-------4--------------------|
A|--2-----2----------------------|
E|-------------------------------|

Contrabaixo:

G|---------------------------2-----------|
D|----5-4------5-4------5-4----5-4-------|
A|--2-----5-2------5-2------5------5-----|
E|---------------------------------------|

[Segunda Parte]  

Bm
Sunshine a house in flames
Bm
She likes it where she gets it
But it's never felt the same

     Bm
Surgery in the house of dissection
Bm
When your candle burns out I will resurrect you

    Bm
She runs through fields of daisies
Bm
Yeah it's just a shame
That they eat their own babies

    Bm
Who cares cause the air is free
Bm
When you get there will you kiss the dead for me?

[Parte 3] 

[Guitarra] 

   Bm
E|----------------------0------|
B|----------3-----2-------3-2--|
G|------4----------------------|
D|--------4-----4-----4--------|
A|--2--------------------------|
E|-----------------------------|

   F#m
E|-----------------------------|
B|----------------------0------|
G|----------2-----1-------2-1--|
D|------4----------------------|
A|--------4-----4------4-------|
E|--2--------------------------|

Contrabaixo:

    Bm
G|----------------------------------|
D|------4-4-0-0-----2-2-0-0---------|
A|--2-2---------2-2---------4-4-0-0-|
E|----------------------------------|
    F#m
G|----------------------------------|
D|----------------------------------|
A|------4-4-0-0-----2-2-0-0---------|
E|--2-2---------2-2---------4-4-0-0-|

[Terceira Parte] 

Bm
Something cold is forced inside her
       Bm
A tear spills down her cheek
Bm
Stillborn songs of a dead dreamer
Bm
Hymns of the needle freak
     F#m
With sunlight in her hair
She smiles like she don't care
F#m
Her dreams are liquid blue
F#m
I cut myself again and again
   F#m
To remind myself of you

[Refrão] 

    Bm
She smiles like a child with flowers in her hair
     Bm
With blood on her hands into the sun she stares
    F#m             F#m
She feels it die, I heard her cry

Bm
She smiles like a child with flowers in her hair
     Bm
With blood on her hands into the sun she stares
    F#m             F#m
She feels it die, I heard her cry
           
[Ponte] 

[Riff Final] 

  F#m/C#  C#4 F#m/C#  C#4  F#m/C# C#4
E|-----------------------------------------|
B|-----------------------------------------|
G|--2-----1-----2-----1-----2-----1--------|
D|--4-----4-----4-----4-----4-----4---2h4p2|
A|--4-----4-----4-----4-----4-----4--------|
E|-----------------------------------------|

Bm
Like the scream of the butterfly
Bm
Like the scream of the butterfly

            F#m/C#  C#4 F#m/C#  C#4  F#m/C# C#4
Yeah Yeah Yeah

F#m/C#  C#4 F#m/C#  C#4  F#m/C# C#4
I met an angel with a sawed-off shotgun
F#m/C#  C#4 F#m/C#  C#4  F#m/C# C#4
Wanted by the FBI
F#m/C#  C#4 F#m/C#  C#4  F#m/C# C#4
We dropped some acid, killed our parents
F#m/C#  C#4 F#m/C#  C#4  F#m/C# C#4
Then we hit the road

[Final] 

Bm
Ooh

Bm
Like the scream of the butterfly
F#m/C#  C#4 F#m/C#  C#4  F#m/C# C#4
Like the scream of the butterfly
F#m/C#  C#4 F#m/C#  C#4  F#m/C# C#4
Yeah Yeah Yeah

Bm
Like the scream of the butterfly
Bm
Like the scream of the butterfly

[Final] F#m/C#  C#4 F#m/C#
        C#4  F#m/C# C#4
        F#m/C#  C#4 F#m/C#
        C#4  F#m/C# C#4
        F#m/C#  C#4 F#m/C#
        C#4  F#m/C# C#4
        F#m/C#  C#4 F#m/C# 
        C#4  F#m/C# C#4
        F#m/C#  C#4 F#m/C#
        C#4  F#m/C# C#4  F#m
Outros vídeos desta música
    1.360 exibições
      • ½ Tom
      • A
      • Bb
      • B
      • C
      • Db
      • D
      • Eb
      • E
      • F
      • F#
      • G
      • Ab
    • Adicionar à lista

    Afinação da cifra

    Afinador online

      0 comentários

      Ver todos os comentários

      Conseguiu tocar?

      2Tocaram0Ainda não

      Grave um vídeo tocando Scream Of The Butterfly e nos envie!

      Toque também

      1. Imagem do artista Electric WizardFuneralopolis Electric Wizard
      2. Imagem do artista CrowbarDead Sun Crowbar
      3. Imagem do artista EyehategodGodsong Eyehategod
      4. Imagem do artista BongzillaSundae Driver Bongzilla

      Entre para o Cifra Club PRO

      Tenha acesso a benefícios exclusivos no App e no Site

      • Chega de anúncios

      • Badges exclusivas

      • Mais recursos no app do Afinador

      • Atendimento Prioritário

      • Aumente seu limite de lista

      • Ajude a produzir mais conteúdo

      Cifra Club Pro

      Aproveite o Cifra Club com benefícios exclusivos e sem anúncios
      Cifra Club Pro
      Aproveite o Cifra Club com benefícios exclusivos e sem anúncios
      Ops (: Contenido disponible sólo en portugués.
      OK